» » »

Reggie And The Full Effect, Return Of The Bling Tabs (ver.1)

Artists:  A B C D E F G H I J K L M N O P Q R S T U V W X Y Z # 

Return Of The Bling Tabs (ver.1)

Reggie And The Full Effect Tabs
 Rating:
4/5 (4 votes)
Return Of The Bling lessons Tabs too difficult? Try these video lessons and learn fast
                -------------------------------------------------------------------------------
-------------------------------------------------------------------------------

Tuning: Drop-D

  0:00-0:43 Intro/Verse

e|--------------------------------------------------------------------------|
B|--------------------------------------------------------------------------|
G|--------------------------------------------------------------------------|
D|---------------------5~---------------------------------5~----------------|
A|---------3--------------------------------3-------------------------------|
E|---3--------3---------------------2--------------2------------------------|
  
e|--------------------------------------------------------------------------|
B|--------------------------------------------------------------------------|
G|--------------------------------------------------------------------------|
D|-------------------0~------------------2~---------------------------------|
A|----------0-----------------2---------------------------------------------|
E|------0------0--------2-----------2---------------------------------------|

  0:44-1:13 Pre-Chorus. figure out strumming

e|--------------------------------------------------------------------------|
B|--------------------------------------------------------------------------|
G|--------------------------------------------------------------------------|
D|-----3-----2-----0-----2--------------------------------------------------|
A|-----3-----2-----0-----2--------------------------------------------------|
E|-----3-----2-----0-----2--------------------------------------------------|
  
  1:14-1:42 Chorus 1 again figure out strumming

e|--------------------------------------------------------------------------|
B|--------------------------------------------------------------------------|
G|--------------------------------------------------------------------------|
D|-----7-----2----0---3--5-7---2---0----------------------------------------|
A|-----7-----2----0---3--5-7---2---0--3~------------------------------------|
E|-----7-----2----0---3--5-7---2---0----------------------------------------|

  1:42-2:10 Verse 2 Palm mute. strumming again

e|--------------------------------------------------------------------------|
B|--------------------------------------------------------------------------|
G|--------------------------------------------------------------------------|
D|---3-------2-------0-----2------------------------------------------------|
A|---3-------2-------0-----2------------------------------------------------|
E|---3-------2-------0-----2------------------------------------------------|
     .       .       .     .
  2:11-2:39 Repeat pre-chorus
  
  2:40-3:05 Repeat Chorus minus the last note.

  3:05-3:38 Bridge this part may not be right but it sounds mostly right.
  on fourth time do B instead of A

e|---------x-----------x----------------------------------------------------|
B|---------x-----------x----------------------------------------------------|
G|---5-5---x--5/7-7-7--x--7/2-2-2-------------------------------------------|
D|---5-5---x--5/7-7-7--x--7/2-2-2-x4----------------------------------------|
A|---3-3---x--3/5-5-5--x--5/0-0-0-------------------------------------------|
E|---------x-----------x----------------------------------------------------|

  3:38-4:06 intro and pre-chorus together

  4:07-5:05 repeat chorus minus last note


| /  slide up
| \  slide down
| h  hammer-on
| p  pull-off
| ~  vibrato
| +  harmonic
| x  Mute note
===============================================================================
            
Submit corrections

comments powered by Disqus
↑ Back to top | Reggie And The Full Effect Tabs for Return Of The Bling. Lyrics for acoustic guitar and electric guitar. Tablatures and chords are parodies/interpretations of the original songs. You may use it for private study, scholarship, research or language learning purposes only