» » »

Reggie And The Full Effect, Love Reality Tabs (ver.1)

Artists:  A B C D E F G H I J K L M N O P Q R S T U V W X Y Z # 

Love Reality Tabs (ver.1)

Reggie And The Full Effect Tabs
Rating:
5/5 (1 vote)
Love Reality lessons Tabs too difficult? Try these video lessons and learn fast
                Love Reality - Reggie & The Full Effect

Standard Tuning

Intro
Guitar 1
(0:00 - 0:07)
e|-----------|
B|-----------|
G|-----------|
D|-----------|
A|--3-x60-3\-|
E|-----------|
PM  .     .

Guitar 1
(0:08 - 0:30)

e|-----| Keep playing this note until the verse
B|-----|
G|-----|
D|-----|
A|--3--|
E|-----|
PM  .

Guitar 2
(0:15 - 0:30)
e|--------------------------------------------|
B|--------------------------------------------|
G|--------------------------------------------|
D|--------------------------------------------|  x2
A|--3-3-3-1-3/6-3-3-1-3/8-3-3-1-3/6-8-6-5-6-5-|
E|--------------------------------------------|

Verse
Guitar 1
(0:30 - 1:14)

e|-------------------------------------------|
B|-------------------------------------------|
G|-------------------------------------------|
D|-------------------------------------------|
A|--3-x64--6-x64--3-x64--6-x64--3-x64--8-x64-|
E|-------------------------------------------|
PM  .      .      .      .      .      .

Chorus
Guitar 2
(1:14 - 1:44)
e|--------------------------------------------|
B|--------------------------------------------|
G|--------------------------------------------|
D|--------------------------------------------|  x4
A|--3-3-3-1-3/6-3-3-1-3/8-3-3-1-3/6-8-6-5-6-5-|
E|--------------------------------------------|

Guitar 1
(1:29 - 1:44)

e|-------------------------|
B|-------------------------|
G|----5-5--8-8-------------|
D|---------------5-5---6-6-|  x2
A|--3----6-----3-----------|
E|-------------------4-----|


Verse 2 - Same as verse 1 - (1:44 - 2:14)

Chorus

Guitar 2
(2:14 - 2:29)
e|--------------------------------------------|
B|--------------------------------------------|
G|--------------------------------------------|
D|--------------------------------------------|  x2
A|--3-3-3-1-3/6-3-3-1-3/8-3-3-1-3/6-8-6-5-6-5-|
E|--------------------------------------------|

Guitar 1
(2:14 - 2:29)

e|-------------------------|
B|-------------------------|
G|----5-5--8-8-------------|
D|---------------5-5---6-6-|  x2
A|--3----6-----3-----------|
E|-------------------4-----|

 - Pause -

Guitar 2
(2:36 - 2:44)
e|--------------------------------------------|
B|--------------------------------------------|
G|--------------------------------------------|
D|--------------------------------------------|
A|--3-3-3-1-3/6-3-3-1-3/8-3-3-1-3/6-8-6-5-6-5-|
E|--------------------------------------------|

Guitar 1
(2:36 - 2:44)

e|-------------------------|
B|-------------------------|
G|----5-5--8-8-------------|
D|---------------5-5---6-6-|
A|--3----6-----3-----------|
E|-------------------4-----|

End On

e|----|
B|----|
G|----|
D|----|
A|--3-|
E|----|
            

comments powered by Disqus
↑ Back to top | Reggie And The Full Effect Tabs for Love Reality. Lyrics for acoustic guitar and electric guitar. Tablatures and chords are parodies/interpretations of the original songs. You may use it for private study, scholarship, research or language learning purposes only