» » »

Reggie And The Full Effect, Get Well Soon Tabs (ver.2)

Artists:  A B C D E F G H I J K L M N O P Q R S T U V W X Y Z # 

Get Well Soon Tabs (ver.2)

Reggie And The Full Effect Tabs
 Rating:
3.6/5 (7 votes)
Get Well Soon lessons Tabs too difficult? Try these video lessons and learn fast
                -------------------------------------------------------------------------------
                             Get Well Soon - Reggie and the Full Effect
-------------------------------------------------------------------------------

this songs two guitars, i give you one plus a bit of the other in the intro

Tuning: dropped d

intro:
  (x2)
e|---------------------------------------------------------------------------|
B|---------------------------------------------------------------------------|
G|---------------------------------------------------------------------------|
D|---16----------16----------16----------------------------------------------|
A|-------18--14------18--14------18--14--13--11--9---------------------------|
D|---------------------------------------------------------------------------|

  (x2)
e|-----------------------------------------------------------------------------|
B|-----------------------------------------------------------------------------|
G|-----------------------------------------------------------------------------|
D|--2-----------11---------6---------------------------------------------------|
A|--2--(x 16)---11--(x 8)--6--(x 8)--------------------------------------------|
D|--2-----------11---------6---------------------------------------------------|

  (x2)             (those ones are actually elevens)
e|---------------------------------------------------------------------------|
B|---------------------------------------------------------------------------|
G|---------------------------------------------------------------------------|
D|--22-22-22-22-2222--1111-1111-1111-1111-11111111---------------------------|
A|--22-22-22-22-2222--1111-1111-1111-1111-11111111---------------------------|
D|--22-22-22-22-2222--1111-1111-1111-1111-11111111---------------------------|

verse:
  (x4)
e|---------------------------------------------------------------------------|
B|---------------------------------------------------------------------------|
G|---------------------------------------------------------------------------|
D|---------------------------------------------------------------------------|
A|-2222222222222222-11111111111111111111111111111111-------------------------|
D|-2222222222222222-11111111111111111111111111111111-------------------------|
PM xxxxxxxxxxxxxxxx x x x x x x x x x x x x x x x x

chorus:
(x2)
e|-----------------------------------------------------------------------------|
B|-----------------------------------------------------------------------------|
G|-----------------------------------------------------------------------------|
D|--2-----------11---------6---------------------------------------------------|
A|--2--(x 16)---11--(x 8)--6--(x 8)--------------------------------------------|
D|--2-----------11---------6---------------------------------------------------|

  (x2)                          (elevens)
e|---------------------------------------------------------------------------|
B|---------------------------------------------------------------------------|
G|---------------------------------------------------------------------------|
D|--22-22-22-22-2222--1111-1111-1111-1111-11111111---------------------------|
A|--22-22-22-22-2222--1111-1111-1111-1111-11111111---------------------------|
D|--22-22-22-22-2222--1111-1111-1111-1111-11111111---------------------------|

repeat verse

repeat chorus


bridge:

e|------------------------------------------------|
B|------------------------------------------------|
G|------------------------------------------------|
D|-2~-3~-5~-4~-5~~~-5~------------------2~-3~-5~--|
A|-2~-3~-5~-4~-5~~~-5~----(x2)then...---2~-3~-5~--|
D|-2~-3~-5~-4~-5~~~-5~------------------2~-3~-5~--|

final chorus:
  (x2)
e|---------------------------------------------------------------------------|
B|---------------------------------------------------------------------------|
G|---------------------------------------------------------------------------|
D|--22-22-22-22-2222--1111-1111-1111-1111-11111111---------------------------|
A|--22-22-22-22-2222--1111-1111-1111-1111-11111111---------------------------|
D|--22-22-22-22-2222--1111-1111-1111-1111-11111111---------------------------|

  (x2)
e|---------------------------------------------------------------------------|
B|---------------------------------------------------------------------------|
G|---------------------------------------------------------------------------|
D|-2---------11--------6-----------------------------------------------------|
A|-2--(x16)--11--(x8)--6--(x8)-----------------------------------------------|
D|-2---------11--------6-----------------------------------------------------|

  end on:
e|-----------|
B|-----------|
G|-----------|
D|--2~-------|
A|--2~-------|
D|--2~-------|


| /  slide up
| \  slide down
| h  hammer-on
| p  pull-off
| ~  vibrato
| +  harmonic
| x  Mute note
=============================================================================
            
Submit corrections

comments powered by Disqus
↑ Back to top | Reggie And The Full Effect Tabs for Get Well Soon. Lyrics for acoustic guitar and electric guitar. Tablatures and chords are parodies/interpretations of the original songs. You may use it for private study, scholarship, research or language learning purposes only