» » »

Get Well Soon Tabs (ver.1)

Artists:  A B C D E F G H I J K L M N O P Q R S T U V W X Y Z # 

Get Well Soon Tabs (ver.1)

Reggie And The Full Effect
Rating:
3/5 (6 votes)

Hard to play? Try these video lessons and learn fast.
                Tuning: Drop D

Intro (Keyboard tabbed for Guitar.)
E|14----11-----------14----11----------14-----11-------------------|
B|-----------12-----------------12------------------12---11---9----|
G|----------------------------------------------------------------8|x2
D|-----------------------------------------------------------------|
A|-----------------------------------------------------------------|
D|-----------------------------------------------------------------|

E|14----11-----------14----11----------14-----11-----------------------------|
B|-----------12-----------------12------------------12----11---9-------9---11|
G|-----------------------------------------------------------------8---------| 
D|---------------------------------------------------------------------------|
A|---------------------------------------------------------------------------|
D|---------------------------------------------------------------------------|

E|14----11-----------14----11----------14-----11-----------------------------|
B|-----------12-----------------12------------------12----11---9-------9---11|
G|-----------------------------------------------------------------8---------| 
D|---------------------------------------------------------------------------|
A|---------------------------------------------------------------------------|
D|---------------------------------------------------------------------------|

E|14-14-11-11------14-14--11--11------14-14--11-11---------------------|
B|--------------12---------------12----------------12--11--11-9---9-11-|
G|--------------------------------------------------------------8------|x2
D|---------------------------------------------------------------------|
A|---------------------------------------------------------------------|
D|---------------------------------------------------------------------|

Intro Guitar
E|-----------------------------------------------------------------------|
B|-----------------------------------------------------------------------|
G|-------------6-6-6-6-6-6-6-6-------------------------------------------|
D|2-2-2-2------6-6-6-6-6-6-6-6---6-6-6-6-6-6-6-6-------------------------|x2
A|2-2-2-2-x4---4-4-4-4-4-4-4-4---6-6-6-6-6-6-6-6-------------------------|
D|2-2-2-2------------------------6-6-6-6-6-6-6-6-------------------------|

E|---------------------------------|
B|---------------------------------|
G|-----------------66-66-66--------|
D|22-22-22-22-2222-66-66-66-66-6666|x2
A|22-22-22-22-2222-44-44-44-66-6666|
D|22-22-22-22-2222----------66-6666|

Verse
E|----------------------------------|
B|----------------------------------|
G|----------------------------------|
D|6-6-6-6-----11-11-11-11-----------|x2
A|6-6-6-6-x4--11-11-11-11-x4--------|
D|6-6-6-6-----11-11-11-11-----------|
  . . . .     .. .. .. ..
E|--------------------------|
B|--------------------------|
G|------------6-6-6-6-------|
D|2-2-2-2-----6-6-6-6-x4----|x2 (Gradually come out of PM on last Chord)
A|2-2-2-2-x4--4-4-4-4-------|
D|2-2-2-2-------------------|
  . . . .     . . . .
Chorus
E|-----------------------------------------------------------------------|
B|-----------------------------------------------------------------------|
G|-------------6-6-6-6-6-6-6-6-------------------------------------------|
D|2-2-2-2------6-6-6-6-6-6-6-6---6-6-6-6-6-6-6-6-------------------------|x2
A|2-2-2-2-x4---4-4-4-4-4-4-4-4---6-6-6-6-6-6-6-6-------------------------|
D|2-2-2-2------------------------6-6-6-6-6-6-6-6-------------------------|

E|---------------------------------|
B|---------------------------------|
G|-----------------66-66-66--------|
D|22-22-22-22-2222-66-66-66-66-6666|x2
A|22-22-22-22-2222-44-44-44-66-6666|
D|22-22-22-22-2222----------66-6666|

Chorus Keyboard
E|14----11-----------14----11----------14-----11-----------------------------|
B|-----------12-----------------12------------------12----11---9-------9---11|
G|-----------------------------------------------------------------8---------| 
D|---------------------------------------------------------------------------|
A|---------------------------------------------------------------------------|
D|---------------------------------------------------------------------------|

E|14----11-----------14----11----------14-----11-----------------------------|
B|-----------12-----------------12------------------12----11---9-------9---11|
G|-----------------------------------------------------------------8---------| 
D|---------------------------------------------------------------------------|
A|---------------------------------------------------------------------------|
D|---------------------------------------------------------------------------|

E|14-14-11-11------14-14--11--11------14-14--11-11---------------------|
B|--------------12---------------12----------------12--11--11-9---9-11-|
G|--------------------------------------------------------------8------|x2
D|---------------------------------------------------------------------|
A|---------------------------------------------------------------------|
D|---------------------------------------------------------------------|

Verse 2
E|----------------------------------|
B|----------------------------------|
G|----------------------------------|
D|6-6-6-6-----11-11-11-11-----------|x2
A|6-6-6-6-x4--11-11-11-11-x4--------|
D|6-6-6-6-----11-11-11-11-----------|
  . . . .     .. .. .. ..

E|--------------------------|
B|--------------------------|
G|------------6-6-6-6-------|
D|2-2-2-2-----6-6-6-6-x4----|x2 (Gradually come out of PM on last Chord)
A|2-2-2-2-x4--4-4-4-4-------|
D|2-2-2-2-------------------|
  . . . .     . . . .

Chorus
E|-----------------------------------------------------------------------|
B|-----------------------------------------------------------------------|
G|-------------6-6-6-6-6-6-6-6-------------------------------------------|
D|2-2-2-2------6-6-6-6-6-6-6-6---6-6-6-6-6-6-6-6-------------------------|x2
A|2-2-2-2-x4---4-4-4-4-4-4-4-4---6-6-6-6-6-6-6-6-------------------------|
D|2-2-2-2------------------------6-6-6-6-6-6-6-6-------------------------|

E|---------------------------------|
B|---------------------------------|
G|-----------------66-66-66--------|
D|22-22-22-22-2222-66-66-66-66-6666|x2
A|22-22-22-22-2222-44-44-44-66-6666|
D|22-22-22-22-2222----------66-6666|

Chorus Keyboard
E|14----11-----------14----11----------14-----11-----------------------------|
B|-----------12-----------------12------------------12----11---9-------9---11|
G|-----------------------------------------------------------------8---------| 
D|---------------------------------------------------------------------------|
A|---------------------------------------------------------------------------|
D|---------------------------------------------------------------------------|

E|14----11-----------14----11----------14-----11-----------------------------|
B|-----------12-----------------12------------------12----11---9-------9---11|
G|-----------------------------------------------------------------8---------| 
D|---------------------------------------------------------------------------|
A|---------------------------------------------------------------------------|
D|---------------------------------------------------------------------------|

E|14-14-11-11------14-14--11--11------14-14--11-11---------------------|
B|--------------12---------------12----------------12--11--11-9---9-11-|
G|--------------------------------------------------------------8------|x2
D|---------------------------------------------------------------------|
A|---------------------------------------------------------------------|
D|---------------------------------------------------------------------|

Bridge (Let the chords ring before you strike the next one.) 
E|-----------------------------------------|
B|-----------------------------------------|
G|--------------------------------------6--|
D|6-----8-----9-----11-----2------------6--|x2
A|6-----8-----9-----11-----2------------4--|
D|6-----8-----9-----11-----2---------------|

E|---------------|
B|---------------|
G|------6--------|
D|2-----6--------|
A|2-----4--------|
D|2--------------|

Chorus
E|---------------------------------|
B|---------------------------------|
G|-----------------66-66-66--------|
D|22-22-22-22-2222-66-66-66-66-6666|x2
A|22-22-22-22-2222-44-44-44-66-6666|
D|22-22-22-22-2222----------66-6666|

E|-----------------------------------------------------------------------|
B|-----------------------------------------------------------------------|
G|-------------6-6-6-6-6-6-6-6-------------------------------------------|
D|2-2-2-2------6-6-6-6-6-6-6-6---6-6-6-6-6-6-6-6-------------------------|x2
A|2-2-2-2-x4---4-4-4-4-4-4-4-4---6-6-6-6-6-6-6-6-------------------------|
D|2-2-2-2------------------------6-6-6-6-6-6-6-6-------------------------|

Chorus Keyboard
E|14-14-11-11------14-14--11--11------14-14--11-11---------------------|
B|--------------12---------------12----------------12--11--11-9---9-11-|
G|--------------------------------------------------------------8------|x2
D|---------------------------------------------------------------------|
A|---------------------------------------------------------------------|
D|---------------------------------------------------------------------|

E|14----11-----------14----11----------14-----11-----------------------------|
B|-----------12-----------------12------------------12----11---9-------9---11|
G|-----------------------------------------------------------------8---------| 
D|---------------------------------------------------------------------------|
A|---------------------------------------------------------------------------|
D|---------------------------------------------------------------------------|

E|14----11-----------14----11----------14-----11-----------------------------|
B|-----------12-----------------12------------------12----11---9-------9---11|
G|-----------------------------------------------------------------8---------| 
D|---------------------------------------------------------------------------|
A|---------------------------------------------------------------------------|
D|---------------------------------------------------------------------------|

Outro 
E|14----11-----------14----11----------14-----11---------------------|
B|-----------12-----------------12------------------12----11---9-----|
G|-----------------------------------------------------------------8-| 
D|-------------------------------------------------------------------|
A|-------------------------------------------------------------------|
D|-------------------------------------------------------------------|

E|14----11-----------14----12---11----------|
B|-----------12----------------------12-----|
G|------------------------------------------| 
D|------------------------------------------|
A|------------------------------------------|
D|------------------------------------------|
            
Hard to play? Try these video lessons and learn fast. | Correct




comments powered by Disqus
↑ Back to top | Tablatures and chords are parodies/interpretations of the original songs. You may use it for private study, scholarship, research or language learning purposes only