» » »

From Me 2 U Tabs (ver.1)

Artists:  A B C D E F G H I J K L M N O P Q R S T U V W X Y Z # 

From Me 2 U Tabs (ver.1)

Reggie And The Full Effect
Rating:
0/5 (0 votes)

Hard to play? Try these video lessons and learn fast.
                
Drop D tuning.



Verse:

"Today's your final day..."
e|-----------------------------------|
B|-----------------------------------|
G|-----------------------------------|
D|--7-------0-------4-------0--------|
A|--7(x16)--0(x16)--4(x16)--0(x16)---|
D|--7-------0-------4-------0--------| 
  pm...............  


Chorus:

"Feels good and looks good and..."
e|-----------------------------------|
B|-----------------------------------|
G|-----------------------------------|
D|--4------0------7------2-----------|
A|--4(x8)--0(x8)--7(x8)--2(x8)-------|
D|--4------0------7------2-----------| x2 (second time through continue playing the "7" chord as 
transition back to the verse)


Verse x 3
Chorus x 2 
Verse x 1
Chorus x 2
Verse x 1 
 
Note:  End with the following progression:

e|-----------|
B|-----------|
G|-----------|
D|--0--2--7--|
A|--0--2--7--|
D|--0--2--7--|

Word.
            
Hard to play? Try these video lessons and learn fast. | Correct




comments powered by Disqus
↑ Back to top | Tablatures and chords are parodies/interpretations of the original songs. You may use it for private study, scholarship, research or language learning purposes only