» » »

Congratulations Smack And Katy Tabs (ver.2)

Artists:  A B C D E F G H I J K L M N O P Q R S T U V W X Y Z # 

Congratulations Smack And Katy Tabs (ver.2)

Reggie And The Full Effect
Rating:
5/5 (2 votes)

Hard to play? Try these video lessons and learn fast.
                *****
Intro
*****


Lead Guitar

e|--------------------------|
B|-5-3-2-h3-5-3-p2-0--------|
G|-------------------0------|     X4
D|--------------------------|
A|--------------------------|
E|--------------------------|

Rhythm guitar (Drop D)

e|------------------------------------------------------------------------------|
B|------------------------------------------------------------------------------|
G|-2-2-2-2--2-2-2-2--2-2-2-2--2-2-2-2-----------------------4-4-4--2-2-2--2-2-2-|
D|-2-2-2-2--2-2-2-2--2-2-2-2--2-2-2-2--5-5-5--5-5-5--5-5-5--4-4-4--2-2-2--2-2-2-|
A|-0-0-0-0--0-0-0-0--0-0-0-0--0-0-0-0--5-5-5--5-5-5--5-5-5--2-2-2--0-0-0--0-0-0-|
E|-------------------------------------5-5-5--5-5-5--5-5-5----------------------|

Bass (Drop D)

G|------------------------------------------------------------------------------|
D|------------------------------------------------------------------------------|
A|-0-0-0-0--0-0-0-0--0-0-0-0--0-0-0-0-----------------------2-2-2--0-0-0--0-0-0-|
E|-------------------------------------5-5-5--5-5-5--5-5-5----------------------|

**************
Drums comes in
**************

Lead Guitar

e|--------------------------|
B|-5-3-2-h3-5-3-p2-0--------|
G|-------------------0------|     X4
D|--------------------------|
A|--------------------------|
E|--------------------------|

Rhythm guitar Chords (Drop D)

e|-------------|
B|-------------|
G|----4--------|
D|-0--4--4--5--|
A|-0--2--4--5--|
E|-0-----4--5--|

Bass Chords (Drop D)

G|------------|
D|------------|
A|------------|
E|-0--2--4--5-|


*********
1st Verse
*********


Lead Guitar

e|-
B|-
G|-   Plays nothing
D|-
A|-
E|-

Rhythm guitar (Drop D)

e|-----------------------------------------------------------------|
B|-----------------------------------------------------------------|
G|-----------------------------------------------------------------|
D|-7--------------------------------5-5-5-5-5-5-5-5-5-5-5-5--9-----|    X2
A|-7--------------------------------5-5-5-5-5-5-5-5-5-5-5-5--9-----|
E|-7-77777777777777777777777777777--5-5-5-5-5-5-5-5-5-5-5-5--9-----|

Bass (Drop D)

G|-----------------------------------------------------------------|
D|-----------------------------------------------------------------|    X2
A|-----------------------------------------------------------------|
E|-7-77777777777777777777777777777--5-5-5-5-5-5-5-5-5-5-5-5--9-----|


**********
1st Chorus
**********


Lead Guitar

e|--------------------------|
B|-5-3-2-h3-5-3-p2-0--------|
G|-------------------0------|     X4
D|--------------------------|
A|--------------------------|
E|--------------------------|

Rhythm guitar Chords (Drop D)

e|-------------|
B|-------------|
G|----4--------|
D|-0--4--4--5--|
A|-0--2--4--5--|
E|-0-----4--5--|

Bass Chords (Drop D)

G|------------|
D|------------|
A|------------|
E|-0--2--4--5-|


*********
2nd Verse
*********


Lead Guitar

e|-
B|-
G|-   Plays nothing
D|-
A|-
E|-

Rhythm guitar (Drop D)

e|-----------------------------------------------------------------|
B|-----------------------------------------------------------------|
G|-----------------------------------------------------------------|
D|-7--------------------------------5-5-5-5-5-5-5-5-5-5-5-5--9-----|    X2
A|-7--------------------------------5-5-5-5-5-5-5-5-5-5-5-5--9-----|
E|-7-77777777777777777777777777777--5-5-5-5-5-5-5-5-5-5-5-5--9-----|

Bass (Drop D)

G|-----------------------------------------------------------------|
D|-----------------------------------------------------------------|    X2
A|-----------------------------------------------------------------|
E|-7-77777777777777777777777777777--5-5-5-5-5-5-5-5-5-5-5-5--9-----|


**********
2nd Chorus
**********


Lead Guitar

e|-----------------------------|
B|-5-3-2-h3-5-3-p2-0-----------|
G|-------------------0     X10-|
D|-----------------------------|
A|-----------------------------|
E|-----------------------------|

Rhythm guitar Chords (Drop D)

e|-------------              -----|
B|-------------              -----|
G|----4--------              -----|
D|-0--4--4--5--    X2  THEN  4--5-|
A|-0--2--4--5--              4--5-|
E|-0-----4--5--              4--5-|

Bass Chords (Drop D)

G|-----------                -----|
D|-----------                -----|
A|-----------      X2  THEN  -----|
E|-0--2--4--5                4--5-|


******
Bridge
******


e|-
B|-
G|-   Plays nothing
D|-
A|-
E|-

Rhythm guitar (Drop D)

e|------------|
B|------------|
G|----4-------|
D|-2--4--5--5-|
A|-2--2--5--5-|
E|-2-----5--5-|

Bass Chords (Drop D)

G|------------|
D|------------|
A|----2-------|
E|-2-----5--5-|

Lead Guitar

e|--------------------------|
B|-5-3-2-h3-5-3-p2-0--------|
G|-------------------0------|     X6
D|--------------------------|
A|--------------------------|
E|--------------------------|

Rhythm guitar (Drop D)

e|-------------------------------------------------------------------------------------------------------------------------|
B|-------------------------------------------------------------------------------------------------------------------------|
G|-2-2-2-2--2-2-2-2--2-2-2-2--2-2-2-2-----------------------4-4-4--2-2-2--2-2-2--2-2-2--2-2-2-----------------------4-4-4--|
D|-2-2-2-2--2-2-2-2--2-2-2-2--2-2-2-2--5-5-5--5-5-5--5-5-5--4-4-4--2-2-2--2-2-2--2-2-2--2-2-2--5-5-5--5-5-5--5-5-5--4-4-4--|
A|-0-0-0-0--0-0-0-0--0-0-0-0--0-0-0-0--5-5-5--5-5-5--5-5-5--2-2-2--0-0-0--0-0-0--0-0-0--0-0-0--5-5-5--5-5-5--5-5-5--2-2-2--|
E|-------------------------------------5-5-5--5-5-5--5-5-5-------------------------------------5-5-5--5-5-5--5-5-5---------|
Bass (Drop D)

G|-------------------------------------------------------------------------------------------------------------------------|
D|-------------------------------------------------------------------------------------------------------------------------|
A|-0-0-0-0--0-0-0-0--0-0-0-0--0-0-0-0-----------------------2-2-2--0-0-0--0-0-0--0-0-0--0-0-0-----------------------2-2-2--|
E|-------------------------------------5-5-5--5-5-5--5-5-5-------------------------------------5-5-5--5-5-5--5-5-5---------|


**********
3rd Chorus
**********

**********
2nd Chorus
**********


Lead Guitar

e|--------------------------|
B|-5-3-2-h3-5-3-p2-0--------|
G|-------------------0------|     X9
D|--------------------------|
A|--------------------------|
E|--------------------------|

Rythem guitar Chords (Drop D)

e|-------------              --|
B|-------------              --|
G|----4--------              --|
D|-0--4--4--5--    X2  THEN  0-|
A|-0--2--4--5--              0-|
E|-0-----4--5--              0-|

Bass Chords (Drop D)

G|-----------                --|
D|-----------                --|
A|-----------      X2  THEN  --|
E|-0--2--4--5                0-|
            
Hard to play? Try these video lessons and learn fast. | Correct




comments powered by Disqus
↑ Back to top | Tablatures and chords are parodies/interpretations of the original songs. You may use it for private study, scholarship, research or language learning purposes only