» » »

Congratulations Smack And Katy Tabs (ver.1)

Artists:  A B C D E F G H I J K L M N O P Q R S T U V W X Y Z # 

Congratulations Smack And Katy Tabs (ver.1)

Reggie And The Full Effect
Rating:
3/5 (3 votes)

Tabs too difficult? Try these video lessons and learn fast.
                
Reggie and the Full Effect.
Congratulations Smack and Katy.

Here's the video link: 

My favorite song.
This is for you, Kay.
__________________________________________________________________________________


Tuning: Standard EADGBe


Melody:

e|-----------------------|
B|-----------------------|
G|-----------------------|
D|-----------------------|
A|-7--5--4-5--7--5-4-----|
E|-------------------7-5-|

Synth Fill:

e|-----------------------|
B|-5--3--2-3--5--3-2-----|
G|-------------------5-3-|
D|-----------------------|
A|-----------------------|
E|-----------------------|


Intro Rhythm:

e|-------------------------------------------------------------------------------|
B|-------------------------------------------------------------------------------|
G|-------------------------------------------------------------------------------|
D|-------------------------------------------------------------------------------|
A|-7-7-7----7-7-7----7-7-7----7-7-7----5-5-5--5-5-5--5-5-5--9-9-9--7-7-7----7-7-7|
E|-5-5-5----5-5-5----5-5-5----5-5-5----3-3-3--3-3-3--3-3-3--7-7-7--5-5-5----5-5-5|

Rhythm #1:

e|---------------------------------|
B|---------------------------------|
G|---------------------------------|
D|---------------------------------|
A|-7-(x16)-9-(x16)-4-(x16)-5-(x16)-|
E|-5-(x16)-7-(x16)-2-(x16)-3-(x16)-|

Rhythm #2:

e|-------------------------------------------|
B|-------------------------------------------|
G|-------------------------------------------|
D|-------------------------------------------|
A|-7-(x32)-5-5-5-5-5-5-5-5-5-5-5-5-9-9-9-9-7-|
E|-5-(x32)-3-3-3-3-3-3-3-3-3-3-3-3-7-7-7-7-5-|

Rhythm #3:

e|-------------------------------------------------|
B|-------------------------------------------------|
G|-------------------------------------------------|
D|-------------------------------------------------|
A|-7-(x16)-9-(x16)-4-(x16)-5-(x16)-4-(x16)-5-(x16)-|
E|-5-(x16)-7-(x16)-2-(x16)-3-(x16)-2-(x16)-3-(x16)-|

Rhythm during verse:

e|-----------------------------------------|
B|-----------------------------------------|
G|-----------------------------------------|
D|-----------------------------------------|
A|-7-(x32)-5-5-5-5-5-5-5-5-5-5-5-5-9-9-9-9-|
E|-5-(x32)-3-3-3-3-3-3-3-3-3-3-3-3-7-7-7-7-|
PM:x---x  (_______Both Guitars No PM_______)

Bridge:

e|-------------------------------------|
B|-------------------------------------|
G|-------------------------------------|
D|-------------------------------------|
A|-2-------4--------5--------5---------|
E|-0-------2--------3--------3---------|

Let 'em riiiing.

After Bridge Rhythm:

e|----------------------------------------------------------------|
B|----------------------------------------------------------------|
G|----------------------------------------------------------------|
D|----------------------------------------------------------------|
A|-7-7-7----7-7-7----7-7-7----7-7-7----5-5-5--5-5-5--5-5-5--9-9-9-|
E|-5-5-5----5-5-5----5-5-5----5-5-5----3-3-3--3-3-3--3-3-3--7-7-7-|


__________________________________________________________________________________


The Setup:

Intro:(Melody)x4 (Intro Rhythm)x1
      (Melody)x4 (Synth Fill)x4 (Rhythm #1)x1

Verse 1: (Rhythm during verse)x2

Pre-Chorus: (Melody)x4 (Synth Fill)x4 (Rhythm #1)x1

Verse 2: (Rhythm during verse)x2

Chorus: (Melody)x8 (Synth Fill)x8 (Rhythm #3)x2

Bridge: (Bridge)x1

Post-Bridge:(Melody)x4 (Intro Rhythm)x1

Chorus: (Melody)x8 (Synth Fill)x8 (Rhythm #3)x2

__________________________________________________________________________________


Lyrics:

(Verse 1):Girl, where's your head full of lead?
Don't you see what you're doin' to me?
Wipe that disgrace off your face.
Look and see what you've done to me.

(Pre-Chorus):Girl, you look bored.
I wish everything about the danger.
Would it make you such a stranger?

(Verse 2);So what's the deal?
Don't you feel what I'm dealing with?
But it's all right.
Girl, come on.
I'll show you how to deal with this,
But not tonight 'cause,

(Chorus):Girl, you look bored.
I wish everything about the danger.
Would it make you such a stranger?
Hold me so close.
I can tell you 'bout the best intentions.
One of those simple inventions.
Never a dull situation.
We could just stay on vacation.

(Bridge):Never start an argument with you,
is something I won't do.

(Chorus):Girl, you look bored.
I wish everything about the danger.
Would it make you such a stranger?
Hold me so close.
I can tell you 'bout the best intentions.
One of those simple inventions.
Now that I have your attention now.

__________________________________________________________________________________


Thanks for playing.
Rate good.

- Cory Smith

P.S. I love you Kay.
            
Tabs too difficult? Try these video lessons and learn fast.




comments powered by Disqus
↑ Back to top | Tablatures and chords are parodies/interpretations of the original songs. You may use it for private study, scholarship, research or language learning purposes only