>
 >
Sweet Jane

Sweet Jane Guitar Tabs

Reed Lou - Sweet Jane chords, tabs, tablatures, lyrics

Guitar lessons | Add/correct | Request | Top 50 tabs Artists:  A B C D E F G H I J K L M N O P Q R S T U V W X Y Z 0-9

Sweet Jane Guitar Tabs – Reed Lou

CD, Sheet music, Poster

Do you like Sweet Jane? Share with your friends now
ChordsTabs
---------------
INTRO: Guitar 1
--------------- 

  {C}               {C}                {A#}       {A#}
E---------------------------------------------------------------
B---------------------------------------------------------------
G----------5h7p5v-----------5--7--5-----5\3--3v----5/7-5--3v----
D------5-x---------------5----------5---------------------------
A--5/7---------------5/7----------------------------------------
E---------------------------------------------------------------

 {C}              {C}                {A#}       {A#}
----------------------------------------------------------5h8p5----------
----------5h7p5v----------5--7--5-----5\3--7v---5/7-5--3v-------5h7p5\3--
------5-x--------------5----------5--------------------------------------
--5/7--------------5/7---------------------------------------------------

---------------
INTRO: Guitar 2
--------------- 

  {C}               {C}                {A#}       {A#}
E--------------------------------------------------------------
B----------5h6p5v-----------5--6--5-----5----6v----5/6-5-------
G------5-x---------------5----------5-----7---------------7v---
D--3/5---------------3/5---------------------------------------
A--------------------------------------------------------------
E--------------------------------------------------------------

 {C}               {C}                {A#}       {A#}
----------5h6p5v-----------5--6--5-----5----6v----5/6-5---------
------5-x---------------5----------5-----7---------------7v-----
--3/5---------------3/5-----------------------------------------

INTRO   {C}{C}{A#}{A#}                          
        {C}{C}{A#}{A#}                          

        {C}{C}{A#}{A#}
        {C}{C}{A#}{A#}
        {C}{C}{A#}{A#}
        {C}{C}{A#}{A#}
        {C}{C}{A#}{A#}
        {C}{C}{A#}{A#}
        {C}{C}{A#}{A#}
        {C}{C}{A#}{A#}
        {C}{C}{A#}{A#}
        {C}{C}{A#}{A#}
        {C}{C}{A#}{A#}
        {C}{C}{A#}{A#}
        {Asus4}{A}

        {D}{D}{Fmaj7}{Fmaj7}
        {D#maj7}{D#maj7}{Asus4}{A}

        {F}{F.C/C}{F}{F.C/C}
        {F}{F.C/C}{F}{F.C/C}
BREAK   {B}{B}{B}{B/D.D#}

        {E}{E/D.D#}{E}{E/D.D#}
        {E}{E/D.D#}{E}{E}
        {A/D.G}{G}{G/C.F#}{F#/F#.B}

        {E/E.B}{A/C#m.B}{E/E.B}{A/C#m.B}
        {E/E.B}{A/C#m.B}{E/E.B}{A/C#m.B}
        {E/E.B}{A/C#m.B}{E/E.B}{A/C#m.B}
        {E/E.B}{A/C#m.B}

        {E/E.B}{A/C#m.B}{E/E.B}{A/C#m.B}        (Standing on the ...)
        {E/E.B}{A/C#m.B}{E/E.B}{A/C#m.B}        (Jack's in his ...)
        {E/E.B}{A/C#m.B}{E/E.B}{A/C#m.B}        (Ridin' a Stutz ...)
        {E/E.B}{A/C#m.B}{E/E.B}{A/C#m.B}        (They studied rules ...)

        {E}{A}{E}{A}                            (Sweet Jane, Sweet Jane)
        {E}{A}                                  (Sweet Jane)

GUITAR  {E/E.B}{A/C#m.B}{E/E.B}{A/C#m.B}
        {E/E.B}{A/C#m.B}{E/E.B}{A/C#m.B}

        ....

        {E}{A}{E}{A}                            (Sweet Jane, Sweet ...)
        {E}{A}{E}{A}                            (Sweet Jane, oh ...)
        {E}{A}{E}{A}
        {E}{A}{E}{A}

ENDING  {E}{A}{E}{E...                          



  ----------------
  Ending: Guitar 1
  ---------------- 

   {E}               {A}         {E}               {E...
E--------------------------------------------------------------
B---------------------9b10v------------------------------------
G---11b13r11-9-11-----------------11b13r11-9-11-----9v---------
D------------------11----------------------------11------------
A--------------------------------------------------------------
E--------------------------------------------------------------

  ----------------
  Ending: Guitar 2
  ----------------

   {E}               {A}         {E}               {E...
E--------------------------------------------------------------
B---------------------12b14v-----------------------------------
G---11b13r11-9-11-----------------11b13r11-9-11-----11b13v-----
D------------------11----------------------------11------------
A--------------------------------------------------------------
E--------------------------------------------------------------



*** please note ***

h - hammer on
p - pull off
b - bend string up
r - release bend
/ - slide up
\ - slide down
v - vibrato
^ - harmonics





Comments


Popular Reed Lou tabs & chords
Kill Your Sons 1 Bass Tabs
Dirty Boulevard Chords
Hookywooky Chords
The Kids Chords
Whats Good Chords
I Love You Tabs
No Chance Tabs
Perfect Day Tabs
Ride Into The Sun Tabs
Set The Twilight Reeling Tabs


Song lyrics



↑ Back to top | Tablatures and chords are parodies/interpretations of the original songs. You may use it for private study, scholarship, research or language learning purposes only
© 2014 AZChords.com Contact us | Privacy policy | DMCA | Add/correct tabs | Request tabs | Top 50 tabs