» » »

Red Hot Chili Peppers, What Is Soul Tabs (ver.1)

Artists:  A B C D E F G H I J K L M N O P Q R S T U V W X Y Z # 

What Is Soul Tabs (ver.1)

Red Hot Chili Peppers Tabs
Rating:
0/5 (0 votes)
What Is Soul lessons Tabs too difficult? Try these video lessons and learn fast
                This is a song that rhcp the best band in the world did on the off the map dvd if ya don’t have it get it cuz its awsome

/ slide down        \ slide up
e------------------------------------------------
b-------------------------------------------------------------
g--------------------------------------------------------------------
d-------------------------------------------------3-----------------
a------3-------3--5--------------------3-------------5------------3--------3----5-
E-5-------5-----------15/-------5----------5-----------------5--------5--------



d-----------------------------------3-hold------------------repeat-until-solo
a--------------------3----5-----------------5-----------------------------
e-1\--3--3----5---------------------------------------------------

solo I am not 2 sure bout this but it sounds ok
d----------------------------------------------------------------15----------------
a-----------15---------15----17------------------15----------------17--------------
e-17--------------17----------------17-------------------17------------------



d----------------------------------------------15----------------------------
a-----------------------------------15--17-----------17---------------------
E----------13\---15---15----17--------------------------------
            

comments powered by Disqus
↑ Back to top | Red Hot Chili Peppers Tabs for What Is Soul. Lyrics for acoustic guitar and electric guitar. Tablatures and chords are parodies/interpretations of the original songs. You may use it for private study, scholarship, research or language learning purposes only