>
 >
Walkin' On Down The Road

Walkin' On Down The Road Guitar Tabs

Red Hot Chili Peppers - Walkin' On Down The Road chords, tabs, tablatures, lyrics

Guitar lessons | Add/correct | Request | Top 50 tabs Artists:  A B C D E F G H I J K L M N O P Q R S T U V W X Y Z 0-9

Walkin' On Down The Road Guitar Tabs – Red Hot Chili Peppers

CD, Sheet music, Poster

Do you like Walkin' On Down The Road? Share with your friends now
Tabs


I think this song is played with a talk box.




Intro: All vibratos with bar


                                    A Major Pentatonic 
e-|------------------------------|----------------------------------------|-
B-|------------------------------|--17)~~~~~~~--------Vibrato-with--------|-
G-|------------(Rest)------------|--16~~~~~~~~----------bar-into----------|-
D-|------------------------------|----------------------FeedBack----------|-
A-|------------------------------|----------------------------------------|-
E-|------------------------------|----------------------------------------|-


e-|--------------------------------------|-----------------------------------|-
B-|----)-17---)--------------------------|-------------------------------x\--|-
G-|--16-----16-------------14h16--14~~~--|--(14)~~~~~~~~~----------------x\--|-
D-|--------------------------------------|-----------------------------------|-
A-|--------------------------------------|-----------------------------------|-
E-|--------------------------------------|-----------------------------------|-


E-|------------------------------------|--------------------------------------------|
B-|----)-17---)-17---------------------|----)-17---)-17----)-17----------)----------|
G-|--16-----16--------16-16--14~~~~----|--16-----16------16-----16p14--16---14~~~~--|
D-|------------------------------------|--------------------------------------------|
A-|------------------------------------|--------------------------------------------|
E-|------------------------------------|--------------------------------------------|


E-|--------17--------17--17-17----------|--------------------------------------------|
B-|----)--------------------------------|-------------------------------)--17~~~~~~--|
G-|--16-------------------------14~~~~--|-----------------14----14----16--(16)-------|
D-|-------------------------------------|--16-14----14-16----16----------------------|
A-|-------------------------------------|--------16----------------------------------|
E-|-------------------------------------|--------------------------------------------|




Verse 1:



e-|------------------------------|------------------------------|-
B-|--(17)------------------------|------------------------------|-
G-|--(16)------------------------|------------(Rest)------------|-
D-|------------------------------|------------------------------|-
A-|------------------------------|------------------------------|-
E-|------------------------------|------------------------------|-


e-||------------------------------|------------------------------||-
B-||------------------------------|------------------------------||-
G-||------------(Rest)------------|------------(Rest)------------||-
D-||------------------------------|------------------------------||-
A-||------------------------------|------------------------------||-
E-||------------------------------|------------------------------||-
                                                           (x5)



Chorus 1:



Gtr. 1


e-|------------)--------------)----|-------------------------------|-
B-|--x-x-x-x--5)----x-x-x-x--5)----|--x-x-x-x----------------------|-
G-|--x-x-x-x--5-----x-x-x-x--5-----|--x-x-x-x----------------------|-
D-|--------------------------------|-----------5--x-5--5--x-5h7----|-
A-|--------------------------------|-------------------------------|-
E-|--------------------------------|-------------------------------|-


e-|------------)--------------)----|--------------------------------|-
B-|--x-x-x-x--5)----x-x-x-x--5)----|--x-----------------------------|-
G-|--x-x-x-x--5-----x-x-x-x--5-----|--x-----------------------------|-
D-|--------------------------------|---------5-5-5-5----------------|-
A-|--------------------------------|--------------------------------|-
E-|--------------------------------|--------------------------------|-


e-|------------)--------------)----|-------------------------------|-
B-|--x-x-x-x--5)----x-x-x-x--5)----|-------------------------------|-
G-|--x-x-x-x--5-----x-x-x-x--5-----|-------------------------------|-
D-|--------------------------------|--5-5-5-5-5-5-5-5--5--5-5h7----|-
A-|--------------------------------|-------------------------------|-
E-|--------------------------------|-------------------------------|-


e-|------------)--------------)----|------------------------------|-
B-|--x-x-x-x--5)----x-x-x-x--5)----|------------------------------|-
G-|--x-x-x-x--5-----x-x-x-x--5-----|------------(Rest)------------|-
D-|--------------------------------|------------------------------|-
A-|--------------------------------|------------------------------|-
E-|--------------------------------|------------------------------|-



Gtr. 2

     A5                                   
e-|---------------------------|-------------------------------|-
B-|---------------------------|-------------------------------|-
G-|---------------------------|-------------------------------|-
D-|--7-----------7------------|--7---7---7--------------------|-
A-|--7-----------7------------|--7---7---7--------------------|-
E-|--5-----------5------------|--5---5---5--------------------|-

                              
e-|---------------------------|--------------------------------|-
B-|---------------------------|--------------------------------|-
G-|---------------------------|--------------------------------|-
D-|--7-----------7------------|--7---7---7---------------------|-
A-|--7-----------7------------|--7---7---7-------------)-------|-
E-|--5-----------5------------|--5---5---5------------3--------|-

                             
e-|---------------------------|-------------------------------|-
B-|---------------------------|-------------------------------|-
G-|---------------------------|-------------------------------|-
D-|--7-----------7------------|--7---7---7--------------------|-
A-|--7-----------7------------|--7---7---7--------------------|-
E-|--5-----------5------------|--5---5---5--------------------|-

                                 D5      A5
e-|---------------------------|-------------------------------|-
B-|---------------------------|-------------------------------|-
G-|---------------------------|--7---7------------------------|-
D-|--7-----------7------------|--7---7---7--------------------|-
A-|--7-----------7------------|--5---5---7--------------------|-
E-|--5-----------5------------|----------5--------------------|-



Verse 2:



e-|-----------------------------------|-----------------------------------|-
B-|----)-17---)--17-------------------|----)-17---)--17-------------------|-
G-|--16-----16------16-14~~~~~--------|--16-----16------16-14~~~~~--------|-
D-|-----------------------------------|-----------------------------------|-
A-|-----------------------------------|-----------------------------------|-
E-|-----------------------------------|-----------------------------------|-


e-|-----------------------------------|------------------------------|-
B-|-----------------------------------|------------------------------|-
G-|--(14)~~~~~~~~~--------------------|------------(Rest)------------|-
D-|-----------------------------------|------------------------------|-
A-|-----------------------------------|------------------------------|-
E-|-----------------------------------|------------------------------|-


e-|------------------------------|------------------------------|-
B-|------------------------------|------------------------------|-
G-|------------(Rest)------------|------------(Rest)------------|-
D-|------------------------------|------------------------------|-
A-|------------------------------|------------------------------|-
E-|------------------------------|------------------------------|-


e-|------------------------------|------------------------------------------------|-
B-|--------)----17---------|\----|------------------------------------------------|-
G-|------16---------------16-----|--(16)------------------------14-14~~~~~--------|-
D-|------------------------------|--------------14h16-14h16-14--------------------|-
A-|------------------------------|------------------------------------------------|-
E-|------------------------------|------------------------------------------------|-


e-|-----------------------------------|------------------------------|-
B-|-----------------------------------|------------------------------|-
G-|--(14)~~~~~~~~~--------------------|------------(Rest)------------|-
D-|-----------------------------------|------------------------------|-
A-|-----------------------------------|------------------------------|-
E-|-----------------------------------|------------------------------|-


e-|------------------------------|------------------------------|-
B-|------------------------------|------------------------------|-
G-|------------(Rest)------------|------------(Rest)------------|-
D-|------------------------------|------------------------------|-
A-|------------------------------|------------------------------|-
E-|------------------------------|------------------------------|-




Chorus 2:



Gtr. 1


e-|------------)--------------)----|-------------------------------|-
B-|--x-x-x-x--5)----x-x-x-x--5)----|--x-x-x-x----------------------|-
G-|--x-x-x-x--5-----x-x-x-x--5-----|--x-x-x-x----------------------|-
D-|--------------------------------|-----------5--x-5--5--x-5h7----|-
A-|--------------------------------|-------------------------------|-
E-|--------------------------------|-------------------------------|-


e-|------------)--------------)----|---------------------------------|-
B-|--x-x-x-x--5)----x-x-x-x--5)----|---------------------------------|-
G-|--x-x-x-x--5-----x-x-x-x--5-----|---------------------------------|-
D-|--------------------------------|--5-5-5-5-5-5-5-5----------------|-
A-|--------------------------------|---------------------------------|-
E-|--------------------------------|---------------------------------|-

                                                            P.H
e-|------------)--------------)----|----------------------------------|-
B-|--x-x-x-x--5)----x-x-x-x--5)----|-------------------------)--------|-
G-|--x-x-x-x--5-----x-x-x-x--5-----|------------5-----------7---------|-
D-|--------------------------------|--------5h7---7-7-5-7-5-----------|-
A-|--------------------------------|----------------------------------|-
E-|--------------------------------|----------------------------------|-


e-|------------)--------------)----|-----------------------------------|-
B-|--x-x-x-x--5)----x-x-x-x--5)----|-----------------------------------|-
G-|--x-x-x-x--5-----x-x-x-x--5-----|--------7----7p5-------------------|-
D-|--------------------------------|-----------------7~~~~~------------|-
A-|--------------------------------|-----------------------------------|-
E-|--------------------------------|-----------------------------------|-



Gtr. 2 


Same as first Chorus




Guitar Solo:



e-|-------)-----------------|\----|-------------------------------------|-
B-|------8-----------------8------|--8-8-8-8----------------------------|-
G-|-------------------------------|----------7-7-7-5--------------------|-
D-|-------------------------------|-------------------------------------|-
A-|-------------------------------|-------------------------------------|-
E-|-------------------------------|-------------------------------------|-


e-|--------------------------------|----------------------------------------|-
B-|--------------------------------|----------------------------------------|-
G-|--------------------------------|----------------------------------------|-
D-|--5-5-5-5-5-5-5h7--5h7-5---5h7--|----------------------------------------|-
A-|-------------------------7------|----------------------------------------|-
E-|--------------------------------|----------------------------------------|-


e-|---------------------------------|---------------------------------------|-
B-|----)---17---|\----)---17----|\--|---------------------------------------|-
G-|--16--------16---16--------16----|--14h16p14----16----14~~~~~~~~~--------|-
D-|---------------------------------|-----------16----16--------------------|-
A-|---------------------------------|---------------------------------------|-
E-|---------------------------------|---------------------------------------|-


e-|-------------------------------|---------------------------------------|-
B-|-------------------------------|---------------------------------------|-
G-|-------------------------------|---------------------------------------|-
D-|-------------------------------|---------------------------------------|-
A-|-------------------------------|---------------------------------------|-
E-|-------------------------------|---------------------------------------|-




Interlude:



Gtr. 1


e-|--------------------------------|-----------------------------------|-
B-|--------------------------------|-----------------------------------|-
G-|--------------------------------|-----------------------------------|-
D-|--5------------------------5h7--|--5--------------------------------|-
A-|--------------------------------|-----------------------------------|-
E-|--------------------------------|-----------------------------------|-


e-|--------------------------------|------------------------------------|-
B-|--------------------------------|------------------------------------|-
G-|--------------------------------|------------------------------------|-
D-|--5------------------------5h7--|--5----------------7----------------|-
A-|--------------------------------|------------------------------------|-
E-|--------------------------------|------------------------------------|-


e-|--------------------------------|------------------------------------|-
B-|--------------------------------|------------------------------------|-
G-|--------------------------------|------------------------------------|-
D-|--(7)---------------------------|--(7)-------------------------------|-
A-|--------------------------------|------------------------------------|-
E-|--------------------------------|------------------------------------|-



Gtr. 2


e-|------------------------------------|------------------------------------|-
B-|------------------------------------|------------------------------------|-
G-|------------------------------------|------------------------------------|-
D-|-----7-----7----------5-----5----5--|-----9-----9----------5-----5-------|-
A-|------------------------------------|------------------------------------|-
E-|--5-----5-----5----3-----3-----3----|--7-----7-----7----3-----3-----3----|-


e-|------------------------------------|------------------------------------|-
B-|------------------------------------|------------------------------------|-
G-|------------------------------------|------------------------------------|-
D-|-----7-----7----------5-----5----5--|-----7-----7----------9-----9----9--|-
A-|------------------------------------|------------------------------------|-
E-|--5-----5-----5----3-----3-----3----|--5-----5-----5----7-----7-----7----|-


e-|------------------------------------|-------------------|-
B-|------------------------------------|-------------------|-
G-|------------------------------------|-------------------|-
D-|-----9-----9----------9-----9----9--|-----9-----9-------|-
A-|------------------------------------|-------------------|-
E-|--7-----7-----7----7-----7-----7----|--7-----7-----7----|-




Chorus 3:



Gtr. 1


e-|------------)--------------)----|-------------------------------|-
B-|--x-x-x-x--5)----x-x-x-x--5)----|--x-x-x-x----------------------|-
G-|--x-x-x-x--5-----x-x-x-x--5-----|--x-x-x-x----------------------|-
D-|--------------------------------|-----------5--x-5--5--x-5h7----|-
A-|--------------------------------|-------------------------------|-
E-|--------------------------------|-------------------------------|-


e-|------------)--------------)----|---------------------------------|-
B-|--x-x-x-x--5)----x-x-x-x--5)----|---------------------------------|-
G-|--x-x-x-x--5-----x-x-x-x--5-----|---------------------------------|-
D-|--------------------------------|--5-5-5-5-5-5-5-5----------------|-
A-|--------------------------------|---------------------------------|-
E-|--------------------------------|---------------------------------|-

                                                            
e-|------------)--------------)----|----------------------------------|-
B-|--x-x-x-x--5)----x-x-x-x--5)----|----------------------------------|-
G-|--x-x-x-x--5-----x-x-x-x--5-----|--------5h7-7p5---5------)--------|-
D-|--------------------------------|----------------7---7-7-5---------|-
A-|--------------------------------|----------------------------------|-
E-|--------------------------------|----------------------------------|-


e-|------------)--------------)----|-----------------------------------|-
B-|--x-x-x-x--5)----x-x-x-x--5)----|-----------------------------------|-
G-|--x-x-x-x--5-----x-x-x-x--5-----|--------7----7p5-------------------|-
D-|--------------------------------|-----------------7~~~~~------------|-
A-|--------------------------------|-----------------------------------|-
E-|--------------------------------|-----------------------------------|-



Gtr. 2 


Same as first Chorus




Outro:



e-|--------------------------------------|----------------------------------------|-
B-|----)-17---)-17---)-17----------------|----)-17---)---17---------)-------------|-
G-|--16-----16-----16-----14~~~~~--------|--16-----16-------16h14-16---14~~~~~----|-
D-|--------------------------------------|----------------------------------------|-
A-|--------------------------------------|----------------------------------------|-
E-|--------------------------------------|----------------------------------------|-


e-|--17~~~~~~~~~-------------------------|--------------------------------------|-
B-|--------------------------------------|--------------------------------------|-
G-|--------------------------------------|----------------(Rest)----------------|-
D-|--------------------------------------|--------------------------------------|-
A-|--------------------------------------|--------------------------------------|-
E-|--------------------------------------|--------------------------------------|-


e-|--------------------------------------|--------------------------------------|-
B-|--------------------------------------|--------------------------------------|-
G-|----------------(Rest)----------------|----------------(Rest)----------------|-
D-|--------------------------------------|--------------------------------------|-
A-|--------------------------------------|--------------------------------------|-
E-|--------------------------------------|--------------------------------------|-


e-|--------------------------------------|---------------------------------------|-
B-|------17)-----------------------------|--(17)----)--17--|\--------------------|-
G-|------16------------------------------|--(16)--16------16--14~~~~~------------|-
D-|--------------------------------------|---------------------------------------|-
A-|--------------------------------------|---------------------------------------|-
E-|--------------------------------------|---------------------------------------|-


e-|----------------------------------------|--------------------------------------|-
B-|----------------------------------------|------------------)-17----------------|-
G-|--(14)-------------------14~~~~~--------|----------------16--------------------|-
D-|----------14-14-16-14-16----------------|--------------------------------------|-
A-|----------------------------------------|--------------------------------------|-
E-|----------------------------------------|--------------------------------------|-


e-|------17----------------17-17-17-----|-------------------------------------|-
B-|--17-----------------------------14--|--(14)------------------------14\----|-
G-|---------------------------------14--|--(14)------------------------14\----|-
D-|-------------------------------------|-------------------------------------|-
A-|-------------------------------------|-------------------------------------|-
E-|-------------------------------------|-------------------------------------|-


e-|---------------------------------|---------------------------------|-
B-|--x-x-x-5------------------------|--x-x-x-5------------------------|-
G-|--x-x-x-5------------------------|--x-x-x-5------------------------|-
D-|---------------------------------|---------------------------------|-
A-|---------------------------------|---------------------------------|-
E-|---------------------------------|---------------------------------|-


e-|---------------------------------|------------------------------------------|-
B-|--x-x-x-5------------------------|------------------------------------------|-
G-|--x-x-x-5------------------------|-------5----x--5----x--5----x--5----x--5--|-
D-|---------------------------------|--5/7-------------------------------------|-
A-|---------------------------------|------------------------------------------|-
E-|---------------------------------|------------------------------------------|-


e-|-------------------------------------|--------------------------------------|-
B-|-----------7p5---7--5---7--5----7p5--|--7---5-------------------------------|-
G-|--x--5--x--7p5---7--5---7--5----7p5--|--7---5-------------------------------|-
D-|---------------7------7--------------|--------------------------------------|-
A-|-------------------------------------|--------------------------------------|-
E-|-------------------------------------|--------------------------------------|-


e-|-----------------------------------|----------------------------------------|-
B-|--8/10------------10/12------------|--12/14---------------------------------|-
G-|-----------------------------------|----------------------------------------|-
D-|-----------------------------------|----------------------------------------|-
A-|-----------------------------------|----------------------------------------|-
E-|-----------------------------------|----------------------------------------|-




h = Hammer-On
p = Pull-Off
/ = Slide Upp
\ = Slide Down
x = Mute String
) = Bend
| = Pre-Bend
|\ = Pre-Bend & Release





Comments


Popular Red Hot Chili Peppers tabs & chords
Blues For Meister Bass Tabs
Bullet Proof Bass Tabs
Desecration Smile 3 Bass Tabs
Rare Bass Tabs
Brendans Death Song 2 Chords
By The Way 1 Chords
Blood Sugar Sex Magik 3 Tabs
Dont Forget Me Live Intro 1 Tabs
Scar Tissue Tabs
Venice Queen 2 Tabs


Song lyrics



↑ Back to top | Tablatures and chords are parodies/interpretations of the original songs. You may use it for private study, scholarship, research or language learning purposes only
© 2014 AZChords.com Contact us | Privacy policy | DMCA | Add/correct tabs | Request tabs | Top 50 tabs