» » »

Red Hot Chili Peppers, University Speaking Tabs (ver.1)

Artists:  A B C D E F G H I J K L M N O P Q R S T U V W X Y Z # 

University Speaking Tabs (ver.1)

Red Hot Chili Peppers Tabs
 Rating:
4/5 (4 votes)
University Speaking lessons Tabs too difficult? Try these video lessons and learn fast
                Tuning: Standard (lowest to highest: EADGBE)

This song is incredibly easy to play.  The verse is only two chords and the
chorus is practically a one-tone beat.



  D                                   Em7
|-----------------|-----------------|-0---0---0---0-0-|--0-0---0---0----|
|-7---7---7---7-7-|--7-7---7---7----|-8---8---8---8-8-|--8-8---8---8----|
|-7---7---7---7-7-|--7-7---7---7----|-7---7---7---7-7-|--7-7---7---7----|
|-7---7---7---7-7-|--7-7---7---7----|-0---0---0---0-0-|--0-0---0---0----|
|-5---5---5---5-5-|--5-5---5---5----|-7---7---7---7-7-|--7-7---7---7----|
|-----------------|-----------------|-----------------|-----------------|
 “I                          saw your face             elegant and tired”



The pre-chorus (“Silveretta the chance of a lifetime”) also uses the same
rhythm above, but on the first bar before it, this is played:

|--0-0---0---0----|
|--8-8---8---8-77-|
|--7-7---7---7-77-|
|--0-0---0---0-77-|
|--7-7---7---7-55-|
|-----------------|



On the first two bars before the chorus, this is played:

|-----------------|-----------------|
|-7---------------|-7-7-7-7-7-7-7-7-|
|-7---------------|-7-7-7-7-7-7-7-7-|
|-7---------------|-7-7-7-7-7-7-7-7-|
|-5---------------|-5-5-5-5-5-5-5-5-|
|-----------------|-----------------|



|-----------------|-----------------|-----------------|
|-----------------|-----------------|-----------------|
|-----------------|-----------------|-----------------|
|-----------------|-----------------|-----------------|
|-----------------|-----------------|-----------------|
|-5-5-5-5-5-5-5-5-|-5-5-5-5-5-5-5-5-|-5-5-5-5-5-5-5-5-|
 “Come on baby cuz that’s no name for Give it up and I

|-----------------|-----------------|-----------------|
|-----------------|-----------------|-----------------|
|-----------------|-----------------|-----------------|
|-----------------|-----------------|-----------------|
|-----------------|-----------------|---2-2---2---2---|
|-5-5-5-5-5-5-5-5-|-3---3---3---3-3-|-----------------|
Got what I came for University speaking I

|-----------------|-----------------|-----------------|
|-----------------|-----------------|-----------------|
|-----------------|-----------------|-----------------|
|-----------------|-----------------|-----------------|
|-----------------|-----------------|-----------------|
|-5-5-5-5-5-5-5-5-|-5-5-5-5-5-5-5-5-|-5-5-5-5-5-5-5-5-|
 Take it back and I make you nervous Nothig better than

|-----------------|-----------------|-----------------|
|-----------------|-----------------|-----------------|
|-----------------|-----------------|-----------------|
|-----------------|-----------------|-----------------|
|-----------------|-----------------|---2-2---2---2---|
|-5-5-5-5-5-5-5-5-|-3---3---3---3-3-|-----------------|
 love and service  University speaking I

|-----------------|-----------------|-----------------|
|-----------------|-----------------|-----------------|
|-----------------|-----------------|-----------------|
|-----------------|-----------------|-----------------|
|-----------------|---2-2---2---2---|-----------------|
|-2-2-2-2-2-2-2-2-|-----------------|-0---------------|
                   win in the long run”

Coda:
|-------------------|-------------|-------------|---------|
|-------------------|-------------|-------------|---------|
|-------------------|-------------|-------------|---------|
|-16-14-12-14-12-11-|-12-11-12-14-|-12-11-12-14-|-7-7-7-7-|
|-------------------|-------------|-------------|---------|
|-------------------|-------------|-------------|---------|

|-------------------|-------------|-------------|-------------|
|-------------------|-------------|-------------|-------------|
|-------------------|-------------|-------------|-------------|
|-16-14-12-14-12-11-|-12-11-12-14-|-12-11-12-14-|-19-19-19-19-|
|-------------------|-------------|-------------|-------------|
|-------------------|-------------|-------------|-------------|

|-------------------|-------------|-------------|---------|
|-------------------|-------------|-------------|---------|
|-------------------|-------------|-------------|---------|
|-16-14-12-14-12-11-|-12-11-12-14-|-12-11-12-14-|-7-7-7-7-|
|-------------------|-------------|-------------|---------|
|-------------------|-------------|-------------|---------|

|-------------|---|---|------|
|-------------|---|---|------|
|-------------|---|---|------|
|-7-5-4-5-4-0-|-2-|-7-|-7/12-|
|-------------|---|---|------|
|-------------|---|---|------|

By the way, this is my fifth tab! Check out my other four, all available at

1: "Sabbath Bloody Sabbath" by Black Sabbath
2: "Spiral Architect"       by Black Sabbath
3: "This Is The Place"      by Red Hot Chili Peppers
4: "Peephole"               by System Of A Down

              ****
              *****
              ******              Lucas
              ***                 MADE BY MAN
              ***                 MADE FOR ROCK
      ***********   *******
      ***********   ********
      ***********   *********
       **
        *********
            *****
            *****
            *****
            *****
            *****
            *****
            *****
             ****
              ***
               **
                *
            
Submit corrections

comments powered by Disqus
↑ Back to top | Red Hot Chili Peppers Tabs for University Speaking. Lyrics for acoustic guitar and electric guitar. Tablatures and chords are parodies/interpretations of the original songs. You may use it for private study, scholarship, research or language learning purposes only