>
 >
Under The Bridge By Mick Maggot

Under The Bridge By Mick Maggot Guitar Tabs

Red Hot Chili Peppers - Under The Bridge By Mick Maggot chords, tabs, tablatures, lyrics

Guitar lessons | Add/correct | Request | Top 50 tabs Artists:  A B C D E F G H I J K L M N O P Q R S T U V W X Y Z 0-9

Under The Bridge By Mick Maggot Guitar Tabs – Red Hot Chili Peppers

CD, Sheet music, Poster

Do you like Under The Bridge By Mick Maggot? Share with your friends now
Tabs
/=slide
H=hammer-on
P=pull=off
x=dead note
o|=repeat (go back to beggining or last |o)

Intro (Without pick) X2
  D+                    F#+
|-----------------------------------|
|-3-------3-------------2-----------|
|-----2-----2-------------------3---|
|---4---4-------------------4-----4-|
|-5-------------5-4-2-0---4---4-----|
|-----------------------2-----------|

             D+                      *to ending second time
|------------------------------------|
|----------------------3H5P3---------|
|------------------2---------2-------|
|-4-2-0--------4-----4---------4/6-6-|
|--------4-4/5---5-------------5/7-7-|
|------------------------------------|

  F#+
|-----------------------------|
|-2--------------------------o|
|---------3-------------------|
|-----4-----4---4-2-0---------|
|---4---4-------------4-4/5--o|
|-2---------------------------|

*ending F#+
      |-------------------|
      |-2-----------------|
      |---------3-----3---|
      |-----4-----4----4--|
      |---4---4---------4-|
      |-2-----------------|

Verse 1 (with pick) X2
  E+   B+        C#   Ab+ A+
|------7---------9----4---5--|
|o-9---7---------9----4---5--|
|--9---8---------x----5---6--|
|--9---9---------11---6---7--|
|o-7---9---------11---6---7--|
|------7---7/9-9-9----4---5--|

  E+  B+   C#    A+
|-----7----9-----5---|
|-9---7----9-----5--o|
|-9---8----x-----6---|
|-9---9----11----7---|
|-7---9----11----7--o|
|-----7----9-----5---|

  EMaj+7
|-7---|
|-9---|
|-8---|
|-9---|
|-7---|
|-----|

Verse 3 X2
    E+           B+     (   ) <---only last time
|-------------xx-7---7-7-9-7----|
|o--9---9-9-9-xx-7---7-7-7-7----|
|---9---9-9-9-xx-8---8-8-8-8----|
|---9---9-9-9-xx-9---9-9-x-9----|
|o--7---7-7-7-xx-9---9-9-9-9----|
|-------------xx-7---7-7-7-7----|

        C#   Ab+  A+     *to ending second time
|-------9----4-xx-5-5----|
|-------9----4-xx-5--5--o|
|-------x----5-xx-6---6--|
|-------11---6-xx-7------|
|-------11---6-xx-7-----o|
|-7/9-9-9----4-xx-5------|

*ending        C#   Ab+  A+     
       |-------9----5-5-5------|
       |-------9----5-5---5----|
       |-------x----6-6-----6--|
       |-------11---7-7--------|
       |-------11---7-7--------|
       |-7/9-9-9----5-5--------|

  EMaj+7
|-7---|
|-9---|
|-8---|
|-9---|
|-7---|
|-----|

Chorus X4
      Gb-     E+
|--xx------xx---------xx-|
|o-xx-10---xx-9-9---9-xx-|
|--xx-11---xx-9-9---9-xx-|
|--xx-11---xx-9-9---9-xx-|
|o-xx-9----xx-7-7---7-xx-|
|--xx------xx---------xx-|

  Gb+
|-11-11-11-11-11------------xx--|
|-12-12-12-12-12-10-10---10-xx-o|
|-11-11-11-11-11-11-11---11-xx--|
|----------------11-11---11-xx--|
|----------------9--9----9--xx-o|
|---------------------------xx--|

Verse 2 X2
    E+           B+
|-------------xx-7---7-7-7-----|
|o--9---9-9-9-xx-7---7-7-7-----|
|---9---9-9-9-xx-8---8-8-8H9P8-|
|---9---9-9-9-xx-9---9-9-x-----|
|o--7---7-7-7-xx-9---9-9-9-----|
|-------------xx-7---7-7-7-----|

        C#   Ab+  A+     *to ending second time
|-------9----4-xx-5-5----|
|-------9----4-xx-5--5--o|
|-------x----5-xx-6---6--|
|-------11---6-xx-7------|
|-------11---6-xx-7-----o|
|-7/9-9-9----4-xx-5------|

*ending        C#   Ab+  A+     
       |-------9----5-5-5------|
       |-------9----5-5---5----|
       |-------x----6-6-----6--|
       |-------11---7-7--------|
       |-------11---7-7--------|
       |-7/9-9-9----5-5--------|

EMaj+7
|-7---|
|-9---|
|-8---|
|-9---|
|-7---|
|-----|

Chorus X4
      Gb-     E+
|--xx------xx---------xx-|
|o-xx-10---xx-9-9---9-xx-|
|--xx-11---xx-9-9---9-xx-|
|--xx-11---xx-9-9---9-xx-|
|o-xx-9----xx-7-7---7-xx-|
|--xx------xx---------xx-|

  Gb+
|-11-11-11-11-11------------xx--|
|-12-12-12-12-12-10-10---10-xx-o|
|-11-11-11-11-11-11-11---11-xx--|
|----------------11-11---11-xx--|
|----------------9--9----9--xx-o|
|---------------------------xx--|

Ending
   A+        A-
|--0---0-0-0---------------|
|o-5---5-5-5-5---5-5-5-5-5-|
|--6---6-6-6-5---5-5-5-5-5-|
|--7---7-7-7-7---7-7-7-7-7-|
|o-0---0-0-0-0---0-0-0-0-0-|
|--------------------------|

  GMaj+1+6  FMaj+A
|-0---0-0-0-0-0-0----|
|-3---3-3-3-0-0--0---|
|-4---4-4-4-2-2---2--|
|-5---5-5-5-3-3----3-|
|-0---0-0-0-0-0------|
|--------------------|

   A+        A-
|--0---0-0-0---------------|
|--5---5-5-5-5---5-5-8-5-5-|
|--6---6-6-6-5---5-5-5-5-5-|
|--7---7-7-7-7---7-7-7-7-7-|
|--0---0-0-0-0---0-0-0-0-0-|
|--------------------------|

  GMaj+1+6  FMaj+A
|-0---0-0-0-0-0-------0----|
|-3---3-3-3-0-0-------0---o|
|-4---4-4-4-2-2-----2------|
|-5---5-5-5-3-3-2-3--------|
|-0---0-0-0-0-0-----------o|
|--------------------------|

2nd Guitar

   A
|-----|
|-/10-|
|-----|
|-----|
|-----|
|-----|

Ending Chord
  A+
|-0-|
|-2-|
|-2-|
|-2-|
|-0-|
|---|





Comments


Popular Red Hot Chili Peppers tabs & chords
Apache Rose Peacock 2 Bass Tabs
Let's Make Evil Bass Tabs
Me & My Friends 2 Bass Tabs
Nevermind 2 Bass Tabs
No Chump Love Sucker 2 Bass Tabs
Don't Forget Me Chords
Buckle Down 1 Tabs
Falling Into Grace Tabs
Fire 1 Tabs
Scar Tissue Solos Tabs


Song lyrics



↑ Back to top | Tablatures and chords are parodies/interpretations of the original songs. You may use it for private study, scholarship, research or language learning purposes only
© 2014 AZChords.com Contact us | Privacy policy | DMCA | Add/correct tabs | Request tabs | Top 50 tabs