» » »

Throw Away Your Television Tabs (ver.3)

Artists:  A B C D E F G H I J K L M N O P Q R S T U V W X Y Z # 

Throw Away Your Television Tabs (ver.3)

Red Hot Chili Peppers
Rating:
0/5 (0 votes)

Hard to play? Try these video lessons and learn fast.
                The whole song is mostly played by base exept for the Chorus. here it is:

--------------12-12-15-15-17-17------------------12-12-15-15-17-17-
 its a repeat...................of a story told..................

                                                  |:::quickly:::::|
--------------------------------------------------12-12-12-12-12-12
--------------------------------------------------12-12-12-12-12-12
--------------------------------------------------12-12-12-12-12-12
--------------------------------------------------14-14-14-14-14-14
--------------12-12-15-15-17-17------------------------------------
 its a repeat...................and its gettin old...............

----------------------------9-7-------------------9-7--------------
---------------7------------------9-5--7----------------9-5--7-----
 its a repeat...................of a story told..................
 its a repeat...................and its gettin old...............


easy!
            
Hard to play? Try these video lessons and learn fast. | Correct




comments powered by Disqus
↑ Back to top | Tablatures and chords are parodies/interpretations of the original songs. You may use it for private study, scholarship, research or language learning purposes only