>
 >
Throw Away Your Television 1

Throw Away Your Television 1 Guitar Tabs

Red Hot Chili Peppers - Throw Away Your Television 1 chords, tabs, tablatures, lyrics

Guitar lessons | Add/correct | Request | Top 50 tabs Artists:  A B C D E F G H I J K L M N O P Q R S T U V W X Y Z 0-9

Throw Away Your Television 1 Guitar Tabs – Red Hot Chili Peppers

CD, Sheet music, Poster

Do you like Throw Away Your Television 1? Share with your friends now
ChordsTabsTabs v2Tabs v3

This is pretty basic but it is my first tab
This is only where you put your fingers the rhythm is simple + fast
The Effect I use is Step on the Zoom 707II pedal

E---------------12---------------------
B---------------10---------------------
G---------------------------------------

E---------------------------------------
B---------------12---------------------
G----------------9---------------------

E---------------10---------------------
B----------------8---------------------
G--------------------------------------

E--------------------------------------
B---------------10--------------------
G----------------7--------------------

If This Gets deleted again Robert is a poof. (Too late he already is).





Comments


Popular Red Hot Chili Peppers tabs & chords
Fight Like A Brave Bass Tabs
Havana Affair 2 Bass Tabs
Mexican Maid Bass Tabs
Around The World Drum Tabs
By The Way Live (Solo) Tabs
Ethiopia 4 Tabs
Funny Face Tabs
Hey 1 Tabs
Taste The Pain Tabs
They're Red Hot 2 Tabs


Song lyrics



↑ Back to top | Tablatures and chords are parodies/interpretations of the original songs. You may use it for private study, scholarship, research or language learning purposes only
© 2014 AZChords.com Contact us | Privacy policy | DMCA | Add/correct tabs | Request tabs | Top 50 tabs