» » »

Red Hot Chili Peppers, The Zephyr Song Tabs (ver.2)

Artists:  A B C D E F G H I J K L M N O P Q R S T U V W X Y Z # 

The Zephyr Song Tabs (ver.2)

Red Hot Chili Peppers Tabs
Rating:
0/5 (0 votes)
The Zephyr Song lessons Tabs too difficult? Try these video lessons and learn fast
                Tuning: Standard

key:
BU= Bend up to the pitch of note signaled
BD= Bend down to pitch of note signaled
H= half note
F= full/1 beat (hole beat)
F+H= full/1 beat and a half 
2F= 2 Full/1 beat's

If you get confused by the H's and F's dont worry its just the timeing so you can ignore them because the spaceing is perfect anyway.  

Fist part

   H   H   H  F+H      H     H     H    _____2F_____   F     H   H  H  F+H      H   H
                                       /            \
e:-12--10--12--12------12----10----12------------------------10--8--10--10------10--8
B:-------------------------------------12-BU-13-BD-12--10----------------------------
G:-----------------------------------------------------------------------------------
D:-----------------------------------------------------------------------------------
A:-----------------------------------------------------------------------------------
E:-----------------------------------------------------------------------------------
Caried on
    H   H    _____2F_____   H  
            /            \  
e:--10--12---------------------|
B:----------12-BU-13-BD-12--10-|
G:-----------------------------|
D:-----------------------------|
A:-----------------------------|
E:-----------------------------|

Second part slightly different

   H   H   H  F+H      H     H     H    _____2F_____   F     H   H  H  F+H      H   H
                                       /            \
e:-12--10--12--12------12----10----12------------------------10--8--10--10------10--8
B:-------------------------------------12-BU-13-BD-12--10----------------------------
G:-----------------------------------------------------------------------------------
D:-----------------------------------------------------------------------------------
A:-----------------------------------------------------------------------------------
E:-----------------------------------------------------------------------------------
Caried on
    H   H    _____2F_____   H   H
            /            \  
e:--10--12------------------------|
B:----------12-BU-13-BD-12--10----|
G:------------------------------9-|
D:--------------------------------|
A:--------------------------------|
E:--------------------------------|

This solo is cool but easy to play hope you enjoy it and please rate.
            

comments powered by Disqus
↑ Back to top | Red Hot Chili Peppers Tabs for The Zephyr Song. Lyrics for acoustic guitar and electric guitar. Tablatures and chords are parodies/interpretations of the original songs. You may use it for private study, scholarship, research or language learning purposes only