» » »

Red Hot Chili Peppers, The Zephyr Song Tabs (ver.1)

Artists:  A B C D E F G H I J K L M N O P Q R S T U V W X Y Z # 

The Zephyr Song Tabs (ver.1)

Red Hot Chili Peppers Tabs
Rating:
0/5 (0 votes)
The Zephyr Song lessons Tabs too difficult? Try these video lessons and learn fast
                Red Hot Chili Peppers

This is my first tab so I don't know if it will work or not, but
here goes. This is a great song with a really good verse riff.

Intro:
E----------------------------------------|
B----------------------------------------|
G--------12--------10------9-------10----|
D-----10--------10-------9------10-------|
A--10--------10--------7------8----------|
E----------------------------------------|

E----------------------------------------|
B----------------------------------------|
G--------9--------7------9------10-------|
D-----10-------10------9-9---10-10-------|
A--10-------10-------7------8------------|
E----------------------------------------|

Verse:
E---------------------------------------------------------|
B---------------------------------------------------------|
G----12-12-10-9-----10-10-9-7----9-10-9-7----10-/12-10-9-7|
D--10-------------10------------9----------10-------------|
A10-------------10-------------7----------8---------------|
E---------------------------------------------------------|

E---------------------------------------------------------|
B---------------------------------------------------------|
G-----12--12-14-12-----10--10-9-7---9--9-10-9---10---10---|
D---10--------------10-------------9----------10----10----|
A-10--------------10--------------7----------8-----8------|
E---------------------------------------------------------|

Chorus:
E--2----------------------3---------0---------------------|
B--3----------------------0---------2---------------------|
G--2----------------------0---------2---------------------|
D--0----------------------0---------2---------------------|
A-------------------------2---------0---------------------|
E-------------------------3-------------------------------|
 Fly away...             I feel it more than...


(After first chorus play the first line of the verse twice)


Solo:
E-----------------------------------------------------------|
B17-15-17-17-17-15-17--------15-13-15-15-15-13-15-17--------|
G-------------------(18)16-14----------------------(18)16-14|
D-----------------------------------------------------------|
A-----------------------------------------------------------|
E-----------------------------------------------------------|

The chords for the solo and the bridge (just after the solo and 
before the chorus) are:
 A  G  A  C

Outro:
theres something like this played over the chorus chords at the end
E---2----2----2----2----7----7-----9-----9--|
B--3----3----3----3----8----8----10----10---|
G-2----2----2----2----7----7----9-----9-----|
D-------------------------------------------|
A-------------------------------------------|
E-------------------------------------------|     

Then sometimes you hear this   
E---2----2---3-2--2----7----7-----9-----9---|
B--3----3---3---3-----8----8----10----10----|
G-2----2---2---------7----7----9-----9------|
D-------------------------------------------|
A-------------------------------------------|
E-------------------------------------------|

Then finish on a D chord

Okay there it is. I'm pretty sure most of it's right but you can 
The Chili Peppers are the best and will always rock! Cal
            

comments powered by Disqus
↑ Back to top | Red Hot Chili Peppers Tabs for The Zephyr Song. Lyrics for acoustic guitar and electric guitar. Tablatures and chords are parodies/interpretations of the original songs. You may use it for private study, scholarship, research or language learning purposes only