» » »

Red Hot Chili Peppers, The Righteous And The Wicked Bass tabs (ver.1)

Artists:  A B C D E F G H I J K L M N O P Q R S T U V W X Y Z # 

The Righteous And The Wicked Bass tabs (ver.1)

Red Hot Chili Peppers Tabs
 Rating:
4/5 (4 votes)
The Righteous And The Wicked lessons Tabs too difficult? Try these video lessons and learn fast
                (1)
Intro
G------------------------------------------------------------------------------------
D------------------------------------------------------------------------------------
A-555-----------5555 -----7----------------------------------------------------------
E----757--000--------757 0-----------------------------------------------------------

Chorus
G------------------------------------------------------------------------------------
D------------------------------------------------------------------------------------
A5-5-5-------------------------------------------------------------------------------
E-7-7-7-57888------------------------------------------------------------------------

Bridge
G------------------------------------------------------------------------------------
D------------------------------------------------------------------------------------
A------------------------------------------------------------------------------------
E-7--654 431-01222-------------------------------------------------------------------

Bridge 2
G------------------------------------------------------------------------------------
D------------------------------------------------------------------------------------
A-565--565- 565----------------------------------------------------------------------E----7----7----7-5257----------------------------------------------------------------
Repeat twice
G------------------------------------------------------------------------------------
D------------------------------------------------------------------------------------
A787--787---787----------------------------------------------------------------------
E---9----9-----9-7479-----------------------------------------------------------------------
            
Submit corrections

comments powered by Disqus
↑ Back to top | Red Hot Chili Peppers Bass for The Righteous And The Wicked. Lyrics for acoustic guitar and electric guitar. Tablatures and chords are parodies/interpretations of the original songs. You may use it for private study, scholarship, research or language learning purposes only