» » »

Red Hot Chili Peppers, Otherside Tabs (ver.4)

Artists:  A B C D E F G H I J K L M N O P Q R S T U V W X Y Z # 

Otherside Tabs (ver.4)

Red Hot Chili Peppers Tabs
 Rating:
4/5 (4 votes)
Otherside lessons Tabs too difficult? Try these video lessons and learn fast
1
                The Red Hot CHilli Peppers
Otherside


Key:
x: mute
h: hammer on
p: palm mute
b: full bend down
fb: full bend down and up again
/: slide up
\: slide down



intro:

e: -------------------------------------------------------
B: -------------------------------------------------------
G: -----2-2-2-4-2-4----------------2-2-2-4-2-4-2----------  reapet 1 more time then
D: 2-2-2-----------2-2-2------2-2-2-------------2-2-2-----
A: ---------------------2-2-2------------------------2-2-2
E: -------------------------------------------------------


e: ----------------------
B: ----------------------
G: -----2-2-2-2----------
D: 2-2-2-------2-2-2-----
A: -----------------2-2-2
E: ----------------------


verse:

   Amchord   Echord
e: 0---------0---3
B: 1---------0----
G: 2---------1----  
D: 2---------2----   strum this over 3 times. just listen to the song.
A: 0---------2----        obviously the timing is off so just listen to
E: 0---------0----        the song. u'll get it

Chorus:

the chorus are chords, but kind of emphasise on the intro notes.
the chords are Am, F, C, G.

Bridge:

e: 12-12-12-12----8-8-8-8
B: 12-12-12-12----8-8-8-8
G: ----------------------
D: ----------------------   play again four more times. then...
A: ----------------------
E: ----------------------

e: --------------------------14
B: 8b--8b--8b-10b--10b--10b-/16
G: ----------------------------
D: ----------------------------
A: ----------------------------
E: ----------------------------
with that 14 16 part...just sorta strum those two strings a few times.
once again listen to the song and u'll get it.

thats it...simple

ciao
            
Submit corrections

comments powered by Disqus
↑ Back to top | Red Hot Chili Peppers Tabs for Otherside. Lyrics for acoustic guitar and electric guitar. 1 Tablatures and chords are parodies/interpretations of the original songs. You may use it for private study, scholarship, research or language learning purposes only