» » »

Red Hot Chili Peppers, Simple.....Nice Bass tabs (ver.1)

Artists:  A B C D E F G H I J K L M N O P Q R S T U V W X Y Z # 

Simple.....Nice Bass tabs (ver.1)

Red Hot Chili Peppers Tabs
Rating:
0/5 (0 votes)
Simple.....Nice lessons Tabs too difficult? Try these video lessons and learn fast
                Brought to You By BILLY MOHLER

-------6---7---6----------------------12----16-18-
---7---7---7-------5-7-5---7---13--14-------------
-0---0---0---0---0-------0---0----------0-0-------
--------------------------------------------------

---------------5-0-5---7-12-10-11-12-0-5-0-7-5-------7-
---0-4-5-0-6-7---------------------------------7-------
-5-------------------5---------------------------5-----
-------------------------------------------------------
            
Submit corrections

comments powered by Disqus
↑ Back to top | Red Hot Chili Peppers Bass for Simple.....Nice. Lyrics for acoustic guitar and electric guitar. Tablatures and chords are parodies/interpretations of the original songs. You may use it for private study, scholarship, research or language learning purposes only