» » »

Red Hot Chili Peppers, Save The Population Tabs (ver.3)

Artists:  A B C D E F G H I J K L M N O P Q R S T U V W X Y Z # 

Save The Population Tabs (ver.3)

Red Hot Chili Peppers Tabs
 Rating:
4/5 (4 votes)
Save The Population lessons Tabs too difficult? Try these video lessons and learn fast
1
                Intro (You go back to start after part 1 and 2)
E-------------|-10----10----|--8-----8----|----------------
B-8-11--------|-------------|-------------|-10/11\10-8-863-
D------10-8-7-|---(7)----(7)|----(7)---(7)|----------------
G-------------|-------------|-------------|----------------
A-------------|-------------|-------------|----------------
E-------------|-------------|-------------|----------------
	

Pre-Verse
E-------------|-131313131313|-11---11-----|-101010101010---
B-8-11--------|-------------|-------------|--7-7-7-7-7-7---
D-----10-8-7--|-------------|---(7)---(7)-|--7-7-7-7-7-7---
G-------------|-------------|-------------|----------------
A-------------|-------------|-------------|----------------
E-------------|-------------|-------------|----------------
	

Part 3 (continued)
E--888888--666666--555555-444444---------------------------
B----------------------------------------------------------
D----------------------------------------------------------
G----------------------------------------------------------
A----------------------------------------------------------
E----------------------------------------------------------



Verse
E-------------|-------------|-------------|----------------
B-------------|-------------|-------------|-7-7/8--8--10---
D-------------|--3/55555----|--5/77777----|-7----7----11---
G-5-8---------|-------------|-------------|----------------
A-----6-5-----|-------------|-------------|----------------
E-------------|-------------|-------------|----------------
	

Pre-Chorus
E--3-3-3-3-3--6-6-6-6-6--3-3-3-3-3--6-6-6-6-6--------------
B--3-3-3-3-3--6-6-6-6-6--3-3-3-3-3--6-6-6-6-6--------------
D--3-3-3-3-3--7-7-7-7-7--3-3-3-3-3--7-7-7-7-7--------------
G-------------8-8-8-8-8-------------8-8-8-8-8--------------
A----------------------------------------------------------
E----------------------------------------------------------

E--11-11-11-11-11-11-11-11-11-11--8-8-8-8-8-8-8-8-8-8------
B--11-11-11-11-11-11-11-11-11-11--8-8-8-8-8-8-8-8-8-8------
D--12-12-12-12-12-12-12-12-12-12---------------------------
G--13-13-13-13-13-13-13-13-13-13---------------------------
A----------------------------------------------------------
E----------------------------------------------------------

E--10-10-10-10-10-10-10-10-10-10-101010101010101010101010--
B--10-10-10-10-10-10-10-10-10-10-101010101010101010101010--
D--11-11-11-11-11-11-11-11-11-11-111111111111111111111111--
G--12-12-12-12-12-12-12-12-12-12-121212121212121212121212--
A----------------------------------------------------------
E----------------------------------------------------------

Chorus 
E--15------------------------------------------------------
B-----15----15----------15---------------------------------
D--------12----12-12-12------------------------------------
G----------------------------------------------------------
A----------------------------------------------------------
E----------------------------------------------------------

E----------------------------------------------------------
B------15----15----------15--------------------------------
D---12----12----12-12-12-----------------------------------
G----------------------------------------------------------
A----------------------------------------------------------
E----------------------------------------------------------
                                           End of Chorus
E----------------------------------------|1515151515151515-
B------15----15----15----15--------------|1515151515151515-
D---12----12----12----12-----------------|-----------------
G----------------------------------------|-----------------
A----------------------------------------|-----------------
E----------------------------------------|-----------------
            
Submit corrections

comments powered by Disqus
↑ Back to top | Red Hot Chili Peppers Tabs for Save The Population. Lyrics for acoustic guitar and electric guitar. 1 Tablatures and chords are parodies/interpretations of the original songs. You may use it for private study, scholarship, research or language learning purposes only