» » »

Rontime Tabs (ver.1)

Artists:  A B C D E F G H I J K L M N O P Q R S T U V W X Y Z # 

Rontime Tabs (ver.1)

Red Hot Chili Peppers
Rating:
0/5 (0 votes)

Hard to play? Try these video lessons and learn fast.
                Main Riff: repeat!

e|--12-12-121212-12121212-121212--|
B|--12-12-121212-12121212-121212--|
G|--9--9--9-9-9--9-9-9-9--9-9-9---|
D|--------------------------------|
A|--------------------------------|
E|--------------------------------|

1st Chorus:

e|-------------|
B|-------------|
G|-----9---11--|
D|--11-9-9-11--|
A|--11-7-9-9---|
E|--9----7-----|

2nd Chorus: the 1st part is the same as in the 
            1st Chorus but the 2nd part goes like this:

e|---------------|
B|---------------|
G|-----14----16--|
D|--16-14-14-16--|
A|--16-12-14-14--|
E|--14----12-----|

Fade in during the bass plays:

                  End on: 
e|--9-9-999999-|--121212--|
B|-------------|--121212--|
G|-------------|--9-9-9---|
D|-------------|----------|
A|-------------|----------|
E|-------------|----------|

Have Fun!
            
Hard to play? Try these video lessons and learn fast. | Correct




comments powered by Disqus
↑ Back to top | Tablatures and chords are parodies/interpretations of the original songs. You may use it for private study, scholarship, research or language learning purposes only