» » »

Red Hot Chili Peppers, Road Trippin' Tabs (ver.3)

Artists:  A B C D E F G H I J K L M N O P Q R S T U V W X Y Z # 

Road Trippin' Tabs (ver.3)

Red Hot Chili Peppers Tabs
Rating:
0/5 (0 votes)
Road Trippin' lessons Tabs too difficult? Try these video lessons and learn fast
                Red Hot Chili Peppers - Road Trippin'

Intro:
  Em                                  C
|-----3-----------|-3---------3-----|-----------------|
|-----------0-----|-------0---------|-----5-----------|
|-----------------|-----------------|-----------0-----|
|-2-------2---2---|-----2---2---2---|-----------------|
|-----------------|-----------------|-3---3---3---3---|
|-----0-----------|-0---------------|-----------------|
 ___________________  __________________
|1.                 ||2.
  G+/B                 G+/B
|-------------------||-----------------||
|-4---------4-----o-||-4-----------4---||
|-------0-----------||-------0---------||
|-------------------||-----------------||
|-2---2---2---2---o-||-2---2---2---2---||
|-------------------||-----------------||

Riff 1:
  Em                                  C                 G+/B
|-----3-----------|-3---------3-----|-----------------|-----------------|
|-----------0-----|-------0---------|-----5-----------|-4---------4-----|
|-----------------|-----------------|-----------0-----|-------0---------|
|-2-------2---2---|-----2---2---2---|-----------------|-----------------|
|-----------------|-----------------|-3---3---3---3---|-2---2---2---2---|
|-----0-----------|-0---------------|-----------------|-----------------|

Riff 2:
  Em                                  C                 G+/B
|-----3-----------|-3-----5---3-----|-----------------|-----------------|
|-----------0-----|-----------------|-----5-----------|-4---------4-----|
|-----------------|-----------------|-----------0-----|-------0---------|
|-2-------2---2---|-----2---2---2---|-----------------|-----------------|
|-----------------|-----------------|-3---3---3---3---|-2---2---2---2---|
|-----0-----------|-0---------------|-----------------|-----------------|

Riff 3:
  Am                G/B               C                 G/D
|-0---------0-----|-----------------|-----------------|-7-----7---------|
|-------1---------|-3---------3-----|-5---------5-----|---8-------8-----|
|-----------------|-------0---------|-------0---------|-----7-------7---|
|-----2-------2---|-----0-------0---|-----5-------5---|-0-------0-------|
|-0-------0-------|-2-------2-------|-3-------3-------|-----------------|
|-----------------|-----------------|-----------------|-----------------|

Interlude:
     Em7               A7                C                 D7
||-------------------|-----------------|-----------------|-----------------|
||-o-8---------8-----|-----------------|-5---------5-----|-7---------7-----|
||---------7---------|-6---------6-----|-------5---------|-------5---------|
||-------9-----------|-------5---------|-----5-----------|-----7-----------|
||-o-7-------7-------|-----7-----------|-3-------3-------|-5-------5-------|
||-------------------|-5-------5-------|-----------------|-----------------|
                                                       ____________________
                                                      |1.                  |
  Em7               A7                C                 D#°7/F#
|-----------------|-----------------|-----------------|-5---------7-------||
|-8-----10--8-----|-----------------|-5---------5-----|-------4---------o-||
|-----------------|-6---------6-----|-------5---------|-----5-------------||
|-----9-----------|-------5---------|-----5-----------|-4-----------------||
|-7-------7-------|-----7-----------|-3-------3-------|---------4-------o-||
|-----------------|-5-------5-------|-----------------|-------------------||
 _________________
|2.
  D#°7/F#
|-5-----------5---|---8-----5-------|-8-----11----8---|---5-----2-------||
|-------4-----4---|---4-----4-------|-7-----10----7---|---4-----1-------||
|-----------------|-----------------|-8-----11----8---|---5-----2-------||
|-4---4---4-------|-4---4-------4/7-|-----10----7-----|-4-----1-----1---||
|-----------------|-----------------|-----------------|-----------------||
|-----------------|-----------------|-----------------|-----------------||

Outro:
  Em
|---3-----------3-|-----------3-----|-------3---------|
|---------0-------|-----0-----------|-0-----------0---|
|-----------------|-----------------|-----------------|
|-2-----3-----2---|---2-----2-----2-|-----2-----2-----|
|-----------------|-----------------|-----------------|
|-----------------|-----------------|-----------------|

||-----3-----------3-|-----------3-----|
||-o---------0-------|-----0-----------|
||-------------------|-----------------|
||---2-----2-----2---|---2-----2-----2-|
||-o-----------------|-----------------|
||-------------------|-----------------|
 ___________________  _________________
|1.,2.              ||3.
|-------3-----------||-------3---------|-3~~~------------||
|-0-----------0---o-||-0-----------0---|-----------------||
|-------------------||-----------------|-----------------||
|-----2-----2-------||(2)--2-----2---2~|~~---------------||
|-----------------o-||-----------------|-----------------||
|-------------------||-----------------|-----------------||

Em	022000
C	x35553
G+/B	x2x043
Am	x02210
G/B	x20033
G/D	xx0787
Em7	x79787
A7	575655
D7	x57575
D#°7/F#	xx4545

(Intro)

(2x Riff 1)
Road trippin' with my two fav'rite allies.
Fully loaded we got snacks and supplies.
(Riff 2)
It's time to leave this town, it's time to steal away.
(Riff 1)
Let's go get lost anywhere in the U.S.A.
(Riff 2)
Let's go get lost, let's go get lost.
(4x Riff 1)
Blue, you sit so pretty west of the one.
Sparkles light with yellow icing, just a mirror for the sun.
Just a mirror for the sun.
Just a mirror for the...
(2x Riff 3) ...sun.
These smiling eyes are just a mirror for...
(2x Riff 1)
So much as came before those battles lost and won.
This life is shining more forever in the sun.
(Riff 2)
Now let us check our heads and let us check the surf.
(3x Riff 1)
Staying high and dry's more trouble than it's worth in the sun.
Just a mirror for the sun.
Just a mirror for the...
(2x Riff 3) ...sun.
These smiling eyes are just a mirror for...

(Interlude)

(2x Riff 1)
In Big Sur we take some time to linger on.
We three hunkly dories got our snake finger on.
(Riff 2)
Now let us drink the stars, it's time to steal away.
(Riff 1)
Let's go get lost right here in the U.S.A.
(Riff 2)
Let's go get lost, let's go get lost.
(4x Riff 1)
Blue, you sit so pretty west of the one.
Sparkles light with yellow icing, just a mirror for the sun.
Just a mirror for the sun.
Just a mirror for the...
(4x Riff 3) ...sun.
These smiling eyes are just a mirror for...
These smiling eyes are just a mirror for...
Your smiling eyes are just a mirror for...

(Outro)
            

comments powered by Disqus
↑ Back to top | Red Hot Chili Peppers Tabs for Road Trippin'. Lyrics for acoustic guitar and electric guitar. Tablatures and chords are parodies/interpretations of the original songs. You may use it for private study, scholarship, research or language learning purposes only