» » »

Rhcp Californication Tabs (ver.1)

Artists:  A B C D E F G H I J K L M N O P Q R S T U V W X Y Z # 

Rhcp Californication Tabs (ver.1)

Red Hot Chili Peppers
Rating:
0/5 (0 votes)

Hard to play? Try these video lessons and learn fast.
                Californication 


Intro + verse
   
   guitar 1: 
                                            
   e----------------------------------------
   B------0-2-------------------------------
   G---------------0-2----------------------
   D----2-----------------------------------
   A--0------------3------------------------
   E-------------1--------------------------
                                            
   guitar 2 (bass):                            
                                                               
   e ----------------------------------------------------------
   B ----------------------------------------------------------
   G ----------------------------------------------------------
   D ------2-2-0\2/0-------0-0---------------------------------
   A --0-0-----------3---------3-------------------------------
   E ------------------1-1-------------------------------------
                                                               
   e ----------------------------------------------------------
   B ----------------------------------------------------------
   G ----------------------------------------------------------
   D ------2-2-0\2/0-------3-3-0-------------------------------
   A --0-0-----------3-----------------------------------------
   E ------------------1-1-------------------------------------
                                                                    
    ^-This is whats played in the intro, the verses + more.. 

               
   e--------0--------------------------------1-----------------
   B----------------3------------------------3-----------------
   G------0--0--------------------2--------2-------------------
   D--------------0--0-------------------0---------------------
   A-----3----------------------3--3---------------------------
   E------------3-------------1--------------------------------
   
    ^-This is played in the end of the verse                                                          

Chorus 1 :
 
     am , f , am , f ,
     am , f , am , f ,  
     am , f , am , f ,
       
         Dream of californication...
     
     c g dm am
     c g dm 

Chorus 2 and 3 :

     am , f , am , f ,
     am , f , am , f ,  
     am , f , am , f ,
       
         Dream of californication...

     c g dm am
     c g dm 
    
     c g dm am
     c g dm


   This is where the solo comes, I didn't tab this myself, @&~#$%! (icq) did.
   I've also cheked it, and it seems right to me too.    
 
   e ------9------------------9--------------------------------
   B --10------7b9r7------10------7b9r7------------------------
   G ---------------------------------------11-11-11-11r9------
   D ------------------------------------------------------11--
   A ----------------------------------------------------------
   E ----------------------------------------------------------

   e --------------------------------------9---12--14vvvvvv----
   B ----------------------------------10----------------------
   G ------------9---11b13r11---9------------------------------
   D -11---9-11-----------------11-----------------------------
   A ----------------------------------------------------------
   E ----------------------------------------------------------

   e -----9---12--14b16r14-14------17--16--14--12--14-12---12---
   B -10------------------------------------------------14---14-
   G -----------------------------------------------------------
   D -----------------------------------------------------------
   A -----------------------------------------------------------
   E -----------------------------------------------------------

   e -------------------------12-------14b16r14-12-----12-------
   B --12b14---12b14---12b14-----14----------------14-----14----
   G -----------------------------------------------------------
   D -----------------------------------------------------------
   A -----------------------------------------------------------
   E -----------------------------------------------------------

   e ---------12-----------------|
   B -12--10------15-14---10-----|
   G ----------------------------|
   D ----------------------------|
   A ----------------------------|
   E ----------------------------|


This is how the song goes:

Intro                     
Verse                   
Guitar only        
Verse  
Chorus 
Guitar only 
Verse  
Guitar only
Verse  
Chorus 
Guitar Solo
Guitar thing
Verse  
Chorus 

Peace to all my homies in KneboyRoy!
            
Hard to play? Try these video lessons and learn fast. | Correct




comments powered by Disqus
↑ Back to top | Tablatures and chords are parodies/interpretations of the original songs. You may use it for private study, scholarship, research or language learning purposes only