» » »

Red Hot Chili Peppers, Pea Bass tabs (ver.2)

Artists:  A B C D E F G H I J K L M N O P Q R S T U V W X Y Z # 

Pea Bass tabs (ver.2)

Red Hot Chili Peppers Tabs
 Rating:
4/5 (4 votes)
Pea  lessons Tabs too difficult? Try these video lessons and learn fast
1
                (2)
PEA (Bassline)
As recorded by Red Hot Chili Peppers
(From the 1995 Album ONE HOT MINUTE)



 Words and Music by Anthony Keidis, Michael Balzary, Chad Smith And David Navarro

 

Gtr I (E A D G) - 'Standard'


  Moderately Slow Q=90
 4/4
  Gtr I
  Q  E E Q  E E   Q  E E Q  E E   Q  E E Q  E E   Q  E E Q  E E
|---------------|---------------|---------------|----------------|
|-3--x-3-3--x-3-|---------------|---------------|----------------|
|---------------|-4--x-4-4--x-4-|-3--x-3-3--x-3-|-1----1-1--x-1--|
|---------------|---------------|---------------|----------------|


  Q  E E Q  E E   Q  E E Q  E E   Q  E E Q  E E   Q  E E Q  E E
|---------------|---------------|---------------|---------------|
|-3--x-3-3--x-3-|---------------|---------------|---------------|
|---------------|-4--x-4-4----4-|-3--x-3-3--x-3-|-1--x-1-1--x-1-|
|---------------|---------------|---------------|---------------|


  Q  E E Q  E E   Q  E E Q  E E   Q  E E Q  E E   Q  E E Q  E E
|---------------|---------------|---------------|---------------|
|-3--x-3-3--x-3-|---------------|---------------|---------------|
|---------------|-4--x-4-4----4-|-3--x-3-3----3-|-1--x-1-1--x-1-|
|---------------|---------------|---------------|---------------|


  Q  E E Q  E E   Q  E E Q  E E   Q  E E Q  E E   Q  E E Q  E E
|---------------|---------------|---------------|---------------|
|-3--x-3-3--x-3-|---------------|---------------|---------------|
|---------------|-4--x-4-4--x-4-|-3--x-3-3----3-|-1--x-1-1--x-1-|
|---------------|---------------|---------------|---------------|


  a Q  E E Q  E E   Q  E E Q  E E   Q  E E Q  E E   E E S S E S S E S S S S
|-----------------|-3--x-3-3--x-3-|---------------|--------------------------|
|-3s5--x-5-5--x-5-|---------------|-3--x-3-3--x-3-|-3-3-x-x-3-x-x-3-x---3-4--|
|-----------------|---------------|---------------|-------------------5------|
|-----------------|---------------|---------------|--------------------------|


  Q  E E Q  E E   Q  E E Q  E E   Q  E E Q  E E   E E E E E E E E
|---------------|-3----3-3--x-3-|---------------|-----------------||
|-5--x-5-5--x-5-|---------------|-3--x-3-3--x-3-|-3-3-x-3---3---3-||
|---------------|---------------|---------------|-----------------||
|---------------|---------------|---------------|-----------------||


  Q  E E Q  E E   Q  E E q  q    Q  E E Q  E E   Q  E E q  q
|---------------|--------------|---------------|--------------|
|-2--x-2-2----2-|--------0--3--|-2--x-2-2----2-|--------0-----|
|---------------|-3--x-3-------|---------------|-3--x-3----0--|
|---------------|--------------|---------------|--------------|


  Q  E E Q  E E   Q  E E q  q    Q  E E Q  E E   Q  E E E E E E
|---------------|--------------|---------------|----------------|
|-2--x-2-2--x-2-|--------0--3--|-2--x-2-2--x-2-|-0--x-0-3-3-x-2-|
|---------------|-3----3-------|---------------|----------------|
|---------------|--------------|---------------|----------------|


  +E  E E. S E Q  E   Q  E E E E E E   +E  E E E E E E E   E E E E E E E E
|-------------------|----------------|-------------------|-----------------|
|-(2)-2-2--2-2-2--2-|-0--x-0-3-3-x-2-|-(2)-2-2-2-2-2-2-2-|-0-0-0-0-3-3-3-2-|
|-------------------|----------------|-------------------|-----------------|
|-------------------|----------------|-------------------|-----------------|


  +E  E E E E E E E   E E E E E E E E   +Q.   S S H
|-------------------|-----------------|----------------*|
|-(2)-2-2-2-2-2-2-2-|-0-0-0-0-3-3-3-2-|-(2)------------*|
|-------------------|-----------------|----------------*|
|-------------------|-----------------|-------0-0-0----*|






Duration Legend
---------------
W - whole; H - half; Q - quarter; E - 8th; S - 16th; T - 32nd; X - 64th; a - acciaccatura
+ - note tied to previous; . - note dotted; .. - note double dotted
Uncapitalized letters represent notes that are staccato (1/2 duration)
Irregular groupings are notated above the duration line
Duration letters will always appear directly above the note/fret number it represents the
duration for.  Duration letters with no fret number below them represent rests.  Multi-
bar rests are notated in the form Wxn, where n is the number of bars to rest for.  Low
melody durations appear below the staff

Tablature Legend
----------------
 h   - hammer-on
 p   - pull-off
 b   - bend
 pb  - pre-bend
 r   - bend release (if no number after the r, then release immediately)
 /\  - slide into or out of (from/to "nowhere")
 s   - legato slide
 S   - shift slide
<n> - natural harmonic
[n]  - artificial harmonic
n(n) - tapped harmonic
 ~   - vibrato
 tr  - trill
 T   - tap
 TP  - trem. picking
 PM  - palm muting
\n/  - tremolo bar dip; n = amount to dip
 \n  - tremolo bar down
 n/  - tremolo bar up
/n\  - tremolo bar inverted dip
 =   - hold bend; also acts as connecting device for hammers/pulls
 <> - volume swell (louder/softer)
 x   - on rhythm slash represents muted slash
 o   - on rhythm slash represents single note slash

Misc Legend
-----------
 |  - bar
||  - double bar
||o - repeat start
o|| - repeat end
*|  - double bar (ending)
 :  - bar (freetime)
 $  - Segno
 &  - Coda
Tempo markers - <E/E./Q/Q./H/H.> = BPM(8/16=s8/s16), where s8 = swing 8ths, s16 = swing 16ths
            
Submit corrections

comments powered by Disqus
↑ Back to top | Red Hot Chili Peppers Bass for Pea. Lyrics for acoustic guitar and electric guitar. 1 Tablatures and chords are parodies/interpretations of the original songs. You may use it for private study, scholarship, research or language learning purposes only