» » »

Party On Your Pussy Tabs (ver.1)

Artists:  A B C D E F G H I J K L M N O P Q R S T U V W X Y Z # 

Party On Your Pussy Tabs (ver.1)

Red Hot Chili Peppers
Rating:
0/5 (0 votes)

Hard to play? Try these video lessons and learn fast.
                
INTRO AND VERSE

E|----------------------------------|
B|-6--x--6---x-x-6--x--6---x-x------|
G|-5--x--5---x-x-5--x--5---x-x------|
D|-4--x--4---x-x-4--x--4---x-x------|
A|-5--x--5---x-x-5--x--5---x-x------|
E|----------------------------------|

CHORUS

E|---------x-x-5-5-5-x-4/5-|-----------13-13-13-13-13-13----|
B|-------------------------|-----------13-13-13-13-13-12-12-|
G|-x-x-7-7-x-x-5-5-5-x-4/5-|-x-x-7-7-x-------------------12-|
D|-x-x-7-7-----------------|-x-x-7-7-x-------------------12-|
A|-x-x-5-5-----------------|-x-x-5-5-x----------------------|
E|-------------------------|--------------------------------|

2nd CHORUS (right after the singing-only interlude)

E|------------------------------|
B|-x-x-9-9-x-x------------------|
G|-x-x-9-9-x-x-12-12-12-x-11/12-|
D|-x-x-9-9-x-x-12-12-12-x-11/12-|
A|-x-x-7-7-x-x------------------|
E|------------------------------|

E|-------------15-15-15-15-15-15----|
B|-x-x-9-9-x-x-15-15-15-15-15-15-14-|
G|-x-x-9-9-x-x-12-12-12-12-12-12-14-|
D|-x-x-9-9-x-x-------------------14-|
A|-x-x-7-7-x-x----------------------|
E|----------------------------------|

INTERLUDE

E|--------------------------------------------------|
B|--------------------------------------------------|
G|--------------------------------------------------|
D|-7-5---5--------------------------------------4-5-|
A|-----7---7-5-7-5-3-5-3-3-3(1/4)-------------------|
E|--------------------------------5-5-3-5-5-x-x-----|

I ain’t got a solo because I improvise around it. It improves your playing such a lot. To improvise go around the scale of D. If you have any questions then e-mail me.
            
Hard to play? Try these video lessons and learn fast. | Correct




comments powered by Disqus
↑ Back to top | Tablatures and chords are parodies/interpretations of the original songs. You may use it for private study, scholarship, research or language learning purposes only