>
 >
Paralel Universe

Paralel Universe Guitar Tabs

Red Hot Chili Peppers - Paralel Universe chords, tabs, tablatures, lyrics

Guitar lessons | Add/correct | Request | Top 50 tabs Artists:  A B C D E F G H I J K L M N O P Q R S T U V W X Y Z 0-9

Paralel Universe Guitar Tabs – Red Hot Chili Peppers

CD, Sheet music, Poster

Do you like Paralel Universe? Share with your friends now
Tabs
Intro/verse

E:---------------------------------------------------------------------------------------------------------------------|
B:---------------------------------------------------------------------------------------------------------------------|
G:---------------------------------------------------------------------------------------------------------------------|
D:---------------------------------------------------------------------------------------------------------------------|
A:--555555555555555555-3333333333333333--77777777777777---88888888888-000000000000-|
E:---------------------------------------------------------------------------------------------------------------------|

E:------------------------------------------------------------
B:------------------------------------------------------------
G:------------------------------------------------------------
D:------------------------------------------------------------
A:---12-12-1210-10-108-8-87-7-7-------------
E:------------------------------------------------------------



Chorus:


E:------------------------------------------------------------
B:------------------------------------------------------------
G:------------------------------------------------------------
D:------------------------------------------------------------
A:------------------------------------------------------------
E:------------------------------------------------------------

Bridge:

E:------------------------------------------------------------
B:------------------------------------------------------------
G:------------------------------------------------------------
D:---13-13-13-13-13-13----------------------------------
A:---------------------------10-10-10-10------------------
E:-------------------------------------------10-10-10-10--





Comments


Popular Red Hot Chili Peppers tabs & chords
Cmon Girl Bass Tabs
Dani Caifornia Bass Tabs
Flea From Rhcp 2 Bass Tabs
Me & My Friends 2 Bass Tabs
Dosed 1 Chords
Blood Sugar Sex Magik Intro Drum Tabs
Battle Ship 2 Tabs
Dosed Intro 1 Tabs
One Hot Minute Tabs
Yertle The Turtle 1 Tabs


Song lyrics



↑ Back to top | Tablatures and chords are parodies/interpretations of the original songs. You may use it for private study, scholarship, research or language learning purposes only
© 2014 AZChords.com Contact us | Privacy policy | DMCA | Add/correct tabs | Request tabs | Top 50 tabs