>
 >
Otherside: Full Version

Otherside: Full Version Guitar Tabs

Red Hot Chili Peppers - Otherside: Full Version chords, tabs, tablatures, lyrics

Guitar lessons | Add/correct | Request | Top 50 tabs Artists:  A B C D E F G H I J K L M N O P Q R S T U V W X Y Z 0-9

Otherside: Full Version Guitar Tabs – Red Hot Chili Peppers

CD, Sheet music, Poster

Do you like Otherside: Full Version? Share with your friends now
Tabs

Intro
e|-----------------------------------------------------------------------
B|-----------------------------------------------------------------------
G|-----------------------------------------------------------------------
D|---------7-7-9-7-------------------------------------------------------
A|---7-7-7---------10-7---5-5-5------------------------------------------
E|-----------------------------------------------------------------------
 
e|-----------------------------------------------------------------------
B|-----------------------------------------------------------------------
G|-----------------------------------------------------------------------
D|---------7-7-9-7-------------------------------------------------------
A|---7-7-7---------10-7-7-7-5-5-5----------------------------------------
E|-----------------------------------------------------------------------
  How Long, How Long, Will I Slide
e|-----------------------------------------------------------------------
B|-----------------------------------------------------------------------
G|-----------------------------------------------------------------------
D|---------7-7-9-7-------------------------------------------------------
A|---7-7-7---------10-7-7-7-5-5-5----------------------------------------
E|-----------------------------------------------------------------------
  Seperate My Side, I Don't, I Don't Believe It's Bad
e|-----------------------------------------------------------------------
B|-----------------------------------------------------------------------
G|---------------9-9-9---------------------------------------------------
D|---------7-7-7-------9-9-9---------------------------------------------
A|---7-7-7---------------------------------------------------------------
E|-----------------------------------------------------------------------
  Slit My Throat It's All I Ever
Verse 1
e|------------------------12-15------------------------------------------
B|----13-----------------------------------------------------------------
G|-----------------------------------------------------------------------
D|-----------------------------------------------------------------------
A|-----------------------------------------------------------------------
E|-----------------------------------------------------------------------
  I Heard Your Voice Through A Photograph
e|------------------------12-15------------------------------------------
B|----13-----------------------------------------------------------------
G|-----------------------------------------------------------------------
D|-----------------------------------------------------------------------
A|-----------------------------------------------------------------------
E|-----------------------------------------------------------------------
  I Thought It Up, It Brought Up The Past
e|------------------------12-15------------------------------------------
B|----13-----------------------------------------------------------------
G|-----------------------------------------------------------------------
D|-----------------------------------------------------------------------
A|-----------------------------------------------------------------------
E|-----------------------------------------------------------------------
  Once You Know You Can Never Go Back
e|---O--------------------2----------------------------------------------
B|---2--------------------3----------------------------------------------
G|---2--------------------2----------------------------------------------
D|---2--------------------O----------------------------------------------
A|---0--------------------X----------------------------------------------
E|---X--------------------X----------------------------------------------
  I've Got To Take It On The Otherside...
Verse 2
e|------------------------12-15------------------------------------------
B|----13-----------------------------------------------------------------
G|-----------------------------------------------------------------------
D|-----------------------------------------------------------------------
A|-----------------------------------------------------------------------
E|-----------------------------------------------------------------------
  Centuries Are What It Meant To Me
e|------------------------12-15------------------------------------------
B|----13-----------------------------------------------------------------
G|-----------------------------------------------------------------------
D|-----------------------------------------------------------------------
A|-----------------------------------------------------------------------
E|-----------------------------------------------------------------------
  A Cemetery Where I Marry The Sea
e|------------------------12-15------------------------------------------
B|----13-----------------------------------------------------------------
G|-----------------------------------------------------------------------
D|-----------------------------------------------------------------------
A|-----------------------------------------------------------------------
E|-----------------------------------------------------------------------
  Stranger Things Could Never Change My Mind
e|---O--------------------2----------------------------------------------
B|---2--------------------3----------------------------------------------
G|---2--------------------2----------------------------------------------
D|---2--------------------O----------------------------------------------
A|---0--------------------X----------------------------------------------
E|---X--------------------X----------------------------------------------
  I've Got To Take It On The Otherside...
e|---O--------------------2----------------------------------------------
B|---2--------------------3----------------------------------------------
G|---2--------------------2----------------------------------------------
D|---2--------------------O----------------------------------------------
A|---0--------------------X----------------------------------------------
E|---X--------------------X----------------------------------------------
  Take It On The Otherside...
e|---O--------------------2----------------------------------------------
B|---2--------------------3----------------------------------------------
G|---2--------------------2----------------------------------------------
D|---2--------------------O----------------------------------------------
A|---0--------------------X----------------------------------------------
E|---X--------------------X----------------------------------------------
  Take It On, Take It On...
Chorus
e|-----------------------------------------------------------------------
B|-----------------------------------------------------------------------
G|-----------------------------------------------------------------------
D|---------7-7-9-7-------------------------------------------------------
A|---7-7-7---------10-7-7-7-5-5-5----------------------------------------
E|-----------------------------------------------------------------------
  How Long, How Long, Will I Slide
e|-----------------------------------------------------------------------
B|-----------------------------------------------------------------------
G|-----------------------------------------------------------------------
D|---------7-7-9-7-------------------------------------------------------
A|---7-7-7---------10-7-7-7-5-5-5----------------------------------------
E|-----------------------------------------------------------------------
  Seperate My Side, I Don't, I Don't Believe It's Bad
e|-----------------------------------------------------------------------
B|-----------------------------------------------------------------------
G|---------------9--9--9--9/12-12-12-12----------------------------------
D|---------7-7-7---------------------------------------------------------
A|---7-7-7---------------------------------------------------------------
E|-----------------------------------------------------------------------
  Slit My Throat It's All I Ever
Verse 3
e|------------------------12-15------------------------------------------
B|----13-----------------------------------------------------------------
G|-----------------------------------------------------------------------
D|-----------------------------------------------------------------------
A|-----------------------------------------------------------------------
E|-----------------------------------------------------------------------
  Pour My Life Into A Paper Cup
e|------------------------12-15------------------------------------------
B|----13-----------------------------------------------------------------
G|-----------------------------------------------------------------------
D|-----------------------------------------------------------------------
A|-----------------------------------------------------------------------
E|-----------------------------------------------------------------------
  The Ashtray's Full And I'm Spillin' My Guts
e|------------------------12-15------------------------------------------
B|----13-----------------------------------------------------------------
G|-----------------------------------------------------------------------
D|-----------------------------------------------------------------------
A|-----------------------------------------------------------------------
E|-----------------------------------------------------------------------
  She Wants To Know Am I Still A Slut
e|---O--------------------2----------------------------------------------
B|---2--------------------3----------------------------------------------
G|---2--------------------2----------------------------------------------
D|---2--------------------O----------------------------------------------
A|---0--------------------X----------------------------------------------
E|---X--------------------X----------------------------------------------
  I've Got To Take It On The Otherside...
Verse 4
e|------------------------12-15------------------------------------------
B|----13-----------------------------------------------------------------
G|-----------------------------------------------------------------------
D|-----------------------------------------------------------------------
A|-----------------------------------------------------------------------
E|-----------------------------------------------------------------------
  Scarlet Starlet And She's In My Bed 
e|------------------------12-15------------------------------------------
B|----13-----------------------------------------------------------------
G|-----------------------------------------------------------------------
D|-----------------------------------------------------------------------
A|-----------------------------------------------------------------------
E|-----------------------------------------------------------------------
  A Candidate For My Soul Mate Bled
e|------------------------12-15------------------------------------------
B|----13-----------------------------------------------------------------
G|-----------------------------------------------------------------------
D|-----------------------------------------------------------------------
A|-----------------------------------------------------------------------
E|-----------------------------------------------------------------------
  Push the Trigger And Pull The Thread
e|---O--------------------2----------------------------------------------
B|---2--------------------3----------------------------------------------
G|---2--------------------2----------------------------------------------
D|---2--------------------O----------------------------------------------
A|---0--------------------X----------------------------------------------
E|---X--------------------X----------------------------------------------
  I've Got To Take It On The Otherside...
e|---O--------------------2----------------------------------------------
B|---2--------------------3----------------------------------------------
G|---2--------------------2----------------------------------------------
D|---2--------------------O----------------------------------------------
A|---0--------------------X----------------------------------------------
E|---X--------------------X----------------------------------------------
  Take It On The Otherside...
e|---O--------------------2----------------------------------------------
B|---2--------------------3----------------------------------------------
G|---2--------------------2----------------------------------------------
D|---2--------------------O----------------------------------------------
A|---0--------------------X----------------------------------------------
E|---X--------------------X----------------------------------------------
  Take It On, Take It On...
Chorus
e|-----------------------------------------------------------------------
B|-----------------------------------------------------------------------
G|-----------------------------------------------------------------------
D|---------7-7-9-7-------------------------------------------------------
A|---7-7-7---------10-7-7-7-5-5-5----------------------------------------
E|-----------------------------------------------------------------------
  How Long, How Long, Will I Slide
e|-----------------------------------------------------------------------
B|-----------------------------------------------------------------------
G|-----------------------------------------------------------------------
D|---------7-7-9-7-------------------------------------------------------
A|---7-7-7---------10-7-7-7-5-5-5----------------------------------------
E|-----------------------------------------------------------------------
  Seperate My Side, I Don't, I Don't Believe It's Bad
e|-----------------------------------------------------------------------
B|-----------------------------------------------------------------------
G|---------------9-9-9---------------------------------------------------
D|---------7-7-7-------9-9-9---------------------------------------------
A|---7-7-7---------------------------------------------------------------
E|-----------------------------------------------------------------------
  Slit My Throat It's All I Ever
Bridge
e|-----------12-12-12----------------------------------------------------
B|--------------------12-12-12-------------------------------------------
G|-----------------------------------------------------------------------
D|-----------------------------------------------------------------------
A|-----------------------------------------------------------------------
E|-----------------------------------------------------------------------
            |-------------------|
             These Are Harmonics
e|-----------12-12-12----------------------------------------------------
B|--------------------12-12-12-------------------------------------------
G|-----------------------------------------------------------------------
D|-----------------------------------------------------------------------
A|-----------------------------------------------------------------------
E|-----------------------------------------------------------------------

e|-----------12-12-12----------------------------------------------------
B|--------------------12-12-12-------------------------------------------
G|-----------------------------------------------------------------------
D|-----------------------------------------------------------------------
A|-----------------------------------------------------------------------
E|-----------------------------------------------------------------------
  Turm Me On Take Me For A Hard Ride, Burn Me Out Leave Me On The Otherside
e|-----------12-12-12----------------------------------------------------
B|--------------------12-12-12-------------------------------------------
G|-----------------------------------------------------------------------
D|-----------------------------------------------------------------------
A|-----------------------------------------------------------------------
E|-----------------------------------------------------------------------
  I Yell And Tell It That It's Not My Friend, I Tear It Down I Tear It Down
  And Then It's Born Again
Solo
e|-----------------10/12-12-12-12--12h15-12-12-12h15-12-12-12h15-12-12-12h15
B|-10--10-10-10-10-------------------------------------------------------
G|-----------------------------------------------------------------------
D|-----------------------------------------------------------------------
A|-----------------------------------------------------------------------
E|-----------------------------------------------------------------------

Chorus 
e|-----------------------------------------------------------------------
B|-----------------------------------------------------------------------
G|-----------------------------------------------------------------------
D|-----------------------------------------------------------------------
A|-----------------------------------------------------------------------
E|-----------------------------------------------------------------------
  How Long, how Long, Will I Slide
e|-----------------------------------------------------------------------
B|-----------------------------------------------------------------------
G|-----------------------------------------------------------------------
D|-----------------------------------------------------------------------
A|-----------------------------------------------------------------------
E|-----------------------------------------------------------------------
  Seperate My Side, I Don't, I Don't Believe It's Bad
e|-----------------10/12-12-12-12--12h15-12-12-12h15-12-12-12h15-12-12-12h15
B|-----------------------------------------------------------------------
G|-----------------------------------------------------------------------
D|-----------------------------------------------------------------------
A|-----------------------------------------------------------------------
E|-----------------------------------------------------------------------
  Slit My Throat It's All I Ever
e|-----------------10/12-12-12-12--12h15-12-12-12h15-12-12-12h15-12-12-12h15
B|-----------------------------------------------------------------------
G|-----------------------------------------------------------------------
D|-----------------------------------------------------------------------
A|-----------------------------------------------------------------------
E|-----------------------------------------------------------------------
  How Long, I Don't Belive It's Bad
e|-----------------10/12-12-12-12--12h15-12-12-12h15-12-12-12h15-12-12-12h15
B|-----------------------------------------------------------------------
G|-----------------------------------------------------------------------
D|-----------------------------------------------------------------------
A|-----------------------------------------------------------------------
E|-----------------------------------------------------------------------
  Slit My Throat It's All I Ever...





Comments


Popular Red Hot Chili Peppers tabs & chords
Especially In Michigan 2 Bass Tabs
Around The World Chords
By The Way Drum Tabs
Dont Forget Me Live 2 Tabs
Fire 1 Tabs
Hump De Bump 2 Tabs
Melloship Tabs
This Velvet Glove 1 Tabs
Throw Away Your Television 1 Tabs
Warm Tape Tabs


Song lyrics



↑ Back to top | Tablatures and chords are parodies/interpretations of the original songs. You may use it for private study, scholarship, research or language learning purposes only
© 2014 AZChords.com Contact us | Privacy policy | DMCA | Add/correct tabs | Request tabs | Top 50 tabs