>
 >
Otherside 2

Otherside 2 Guitar Tabs

Red Hot Chili Peppers - Otherside 2 chords, tabs, tablatures, lyrics

Guitar lessons | Add/correct | Request | Top 50 tabs Artists:  A B C D E F G H I J K L M N O P Q R S T U V W X Y Z 0-9

Otherside 2 Guitar Tabs – Red Hot Chili Peppers

CD, Sheet music, Poster

Do you like Otherside 2? Share with your friends now
Tabs
Intro
-----

e---------------------------------------------
B---------------------------------------------
G-----------------4---------------------------
D-----------7--7----7-5-----------------------
A--7--7--7--------------7------5--5--5--------
E---------------------------------------------


Chorus
-------

e---------------------------------------------
B---------------------------------------------
G-----------------4---------------------------
D-----------7--7----7-5-----------------------
A--7--7--7--------------7--7--7--5--5--5------
E---------------------------------------------

e---------------------------------------------
B---------------------------------------------
G-----------------4---------------------------
D-----------7--7----7-5-------------5---------
A--7--7--7--------------7--7--7--5--5--5------
E---------------------------------------------

e---------------------------------------------
B---------------------------------------------
G---------------------------------------------
D-----------7--7--7/ 14-14-14\ 9-9-9-9--------
A--7--7--7------------------------------------
E---------------------------------------------


Verses
------

e--------8---------------------15-------------
B--------------------------12-----------------
G---------------------------------------------
D---------------------------------------------
A---------------------------------------------
E--5--5--5--5-5/  \12--12--12--12-------------


             G             A
I've got to take it on the other side.

G              A
Take it on the other side.

G           A
Take it on, take it on.


G(355433)
A(577655)


Interlude
---------
Distortion

e-0--0--0--------0---0----
B-0--0--0---12--12--12----

e-12--12--12---0--0--0---
B-0---0---0----12-12-12--  3x


"Solo"
------

Distortion

There are two guitars playing. I couldn't figure out what the second guitar plays...

Guitar 1:

e--0------0---0--0--0--0--0--0--0--0--0--0--0--0--0--0--0--0--0--0--0--0--0--0--0--0---
B-12/10--10--10-10/17-17-17-17-17-17-17-17-20-17-17-17-17-17-17-20-17-17-20-17-20-17---


Last Chorus
-----------

Guitar 1 
[Distortion]

(at the beginning) 

e--0--0--0--0----0--0---0--0--0--0---------
B-17-17-17-17---17-17--17-17-17-17---------


(at the end)

e--0---0---0---0---0---0---0---0-----10--10--10--10-----------
B-17--17--17--17--17--17--17--17\12--12--12--12--12-----------
G-------------------------------------0---0---0---0------9----
D-------------------------------------0---0---0---0------7----
A-------------------------------------------------------------
E-------------------------------------------------------------


Guitar 2
[clean]

Just play the following chords. You'll hear when the chords change.

Am | F | C | G


That's it! I only gave a very rough shape of the timing, but I think it isn't difficult to figure it out.





Comments


Popular Red Hot Chili Peppers tabs & chords
If You Want Me To Stay Bass Tabs
Roller Coaster Of Love 1 Bass Tabs
Savior 2 Bass Tabs
The Brothers Cup 1 Bass Tabs
Easily 2 Tabs
Falling Into Grace Tabs
Get Up And Jump Intro Tabs
Give It Away Live 1 Tabs
Instrumental #1 Tabs
Pretty Lil Ditty Tabs


Song lyrics



↑ Back to top | Tablatures and chords are parodies/interpretations of the original songs. You may use it for private study, scholarship, research or language learning purposes only
© 2014 AZChords.com Contact us | Privacy policy | DMCA | Add/correct tabs | Request tabs | Top 50 tabs