» » »

Otherside Tabs (ver.1)

Artists:  A B C D E F G H I J K L M N O P Q R S T U V W X Y Z # 

Otherside Tabs (ver.1)

Red Hot Chili Peppers
Rating:
0/5 (0 votes)

Tabs too difficult? Try these video lessons and learn fast.
                OTHERSIDE
		          red hot chili peppers
                      from the album Californication
                   Guitar Tab by: Leo Marco L. Billones

*****************************************************************************
                THIS SONG IS DEDICATED TO KIMBERLEY D. HALASAN              
*****************************************************************************

Hey Pipol,
This is one of my favorite songs in their new album. If you find errors
on this tab, feel free to e-mail me. Send your e-mails to:
						Cocoy	
Symbols used:

 ~ = bend             / = slide up to nth fret
() = ghost chord      \ = slide down to nth fret  

(Use distortion on the interlude, bridge & adlib part.)

INTRO:

e|---------------------------------------------------------------|
B|---------------------------------------------------------------|
G|---------------------------------------------------------------|
D|---2---2---2----/7--7----9---7---5---2-------------0---0---0---|
A|---0---0---0-----8--8----------------3-------------------------|
E|---------------------------------------------------------------|

CHORUS:

e|------------------------------------------------------------------|
B|------------------------------------------------------------------|
G|------------------------------------------------------------------|
D|---2---2---2----/7--7--(7)--9---7---5----2---2---2----0---0---0---|
A|---0---0---0-----8--8--(7)---------------3---3---3----------------|
E|------------------------------------------------------------------|
                                                                  
     How long, how long will I slide? 
     Separate my side, I don't know
     I don't believe it's bad
  
  (1st chorus ending)                (2nd chorus ending)
e|-----------------------------|  |-------------------------------------|
B|-----------------------------|  |-------------------------------------|
G|---9----9---9-----\4-4-4-4---|  |---9----9---9-----/12~-12~-12~-12~---|
D|---10---10--10----\5-5-5-5---|  |---10---10--10-----------------------|
A|-----------------------------|  |-------------------------------------|
E|-----------------------------|  |-------------------------------------|
     
     Slitting my throat, It's all I ever

RIFF 1:
     
e|---12----------15---|
B|---13-----12--------|
G|---14---------------|
D|---14---------------|
A|--------------------|
E|--------------------|
      
     I heard your voice through a photograph
     I thought it up it brought up the past
     Once you know you can never come back

RIFF 2:
      
e|---3-----0---|
B|---3-----1---|
G|---0-----2---|
D|---0-----2---|
A|---2-----0---|
E|---3---------|
         
     I've got to take it on the other side

     (RIFF 1)
     Centuries are what it meant to me
     A cemetery where I marry the sea
     Stranger things can never change my mind

     (RIFF 2) X3
     I've got to take it on the other side
     Take it on the other side    
     Take it on, take it on

     (CHORUS)

     (RIFF 1)
     Pour my life into a paper cup
     The ashtray's full and I'm spilling my guts
     She wanna know am I still a sl*t

     (RIFF 2)
     I've got to take it on the other side

     (RIFF 1)
     Scarlet starlet and she's in my bed
     A candidate for my soulmate bled
     Push the trigger and pull the thread

     (RIFF 2) X3
     I've got to take it on the other side
     Take it on the other side
     Take it on, take it on

 CHORUS 3:

e|------------------------------------------------------------------------|
B|------------------------------------------------------------------------|
G|---9---9---9----/14--14--(14)--16---14---12----9---9---9----7---7---7---|
D|------------------------------------------------------------------------|
A|------------------------------------------------------------------------|
E|------------------------------------------------------------------------|
     
     How long, how long will I slide? 
     Separate my side, I don't know
     I don't believe it's bad

e|---12--12--12----\7-7-7-7---|
B|----------------------------|
G|----------------------------|
D|----------------------------|
A|----------------------------|
E|----------------------------|

     Slitting my throat, It's all I ever

INTERLUDE:(REPEAT 2X)

e|---12~-12~-12~---7~-7~-7~--|
B|---------------------------|
G|---------------------------|
D|---------------------------|
A|---------------------------|
E|---------------------------|

BRIDGE:(REPEAT 4X)

e|---12~-12~-12~---7~-7~-7~--|
B|---------------------------|
G|---------------------------|
D|---------------------------|
A|---------------------------|
E|---------------------------|

     Turn me on, take me for a hard ride
     Burn me out, leave me on the other side
     I yell and tell it that it's not my friend
     I tear it down, I tear it down
     But then it's born again

ADLIB & LAST CHORUS:

e|-\5-5-5--/12-12--12-12-12-15p12-12--12-12-12-15p12--12-15p12--12-15p12-|
B|-----------------------------------------------------------------------|
G|-----------------------------------------------------------------------|
D|-----------------------------------------------------------------------|
A|-----------------------------------------------------------------------|
E|-----------------------------------------------------------------------|

CODA:(ADLIB RIFF)

     How long 
     I don't believe it's bad 
     Slitting my throat 

e|---12\5---||
B|----------||
G|----------||
D|----------||
A|----------||
E|----------||

     It's all I ever


Good Luck and Enjoy!

Your suggestions and questions are welcome. Send them to:
            
Tabs too difficult? Try these video lessons and learn fast.




comments powered by Disqus
↑ Back to top | Tablatures and chords are parodies/interpretations of the original songs. You may use it for private study, scholarship, research or language learning purposes only