>
 >
Other Side

Other Side Guitar Tabs

Red Hot Chili Peppers - Other Side chords, tabs, tablatures, lyrics

Guitar lessons | Add/correct | Request | Top 50 tabs Artists:  A B C D E F G H I J K L M N O P Q R S T U V W X Y Z 0-9

Other Side Guitar Tabs – Red Hot Chili Peppers

CD, Sheet music, Poster

Do you like Other Side? Share with your friends now
TabsTabs v2
Intro 

e]---------------------------------------- 
B]---------------------------------------- 
G]---------------------------------------- 
D]--2--2--2-/7--7--9-7-------------------- 
A]---------------------10-7~~----5--5--5-- 
E]---------------------------------------- 

e]---------------------------------------- 
B]---------------------------------------- 
G]---------------------------------------- 
D]--2--2--2-/7--7--9-7-------------------- 
A]---------------------10-7~-7-7-7-5--5-5- 
E]---------------------------------------- 
   
e]---------------------------------------- 
B]---------------------------------------- 
G]---------------------------------------- 
D]--2--2--2-/7--7--9-7-------------------- 
A]---------------------10-7~-7-7-7-5--5-5- 
E]---------------------------------------- 

e]----------------------------------------- 
B]----------------------------------------- 
G]----------------------------------------- 
D]--2--2--2-/7--7--7/14--14--14------------ 
A]-------------------------------14--14-14- 
E]----------------------------------------- 

Verse 
e]-----------------15-- 
B]---13~~~~----12------ played with lots of 
G]--------------------- variation.   
D]--------------------- sometimes a G or Am chord is thrown in 
A]--------------------- 
E]--------------------- 

chorus 
e]------------------------------------------- 
B]------------------------------------------- 
G]------------------------------------------- 
D]--2--2--2-/7--7--9-7----------------------- 
A]---------------------10-7~-7-7-7-10--10-12- 
E]------------------------------------------- 

e]---------------------------------------- 
B]---------------------------------------- 
G]---------------------------------------- 
D]--2--2--2-/7--7--9-7-------------------- 
A]---------------------10-7~-7-7-7-5--5-5- 
E]---------------------------------------- 

e]------------------------------------------ 
B]------------------------------------------ 
G]------------------------------------------ 
D]--2--2--2--5-7--7--7/14--14--14----------- 
A]--------------------------------14--14-14- 
E]------------------------------------------ 
  
interlude (cool jungle beat thing) 
DISTORTION ON 

e]---------------------------12--12-12~~~--------------- 
B]-------------12--12-12~~~----------------12--12-12~~~- 
G]--9--9-9~~~------------------------------------------- 
D]------------------------------------------------------ 
A]------------------------------------------------------ 
E]------------------------------------------------------ 

then the solo is pretty damn simple, and runs right through the last chorus 

e]----------------12--12-12~12-14p12-12-14p12-14p12-12-14p12-and so on-- 
B]--10--10-10~~~-------------------------------------------------------- 
G]---------------------------------------------------------------------- 
D]---------------------------------------------------------------------- 
A]---------------------------------------------------------------------- 
E]----------------------------------------------------------------------





Comments


Popular Red Hot Chili Peppers tabs & chords
Fortune Faded 4 Bass Tabs
Brothers Cup 1 Tabs
Catholic School Girls Rule 1 Tabs
Dosed 4 Tabs
Fela's Cock Tabs
Live At Slane Intro Tabs
Midnight Tabs
One Hot Minute 1 Tabs
Porcelain Tabs
Tear 2 Tabs


Song lyrics



↑ Back to top | Tablatures and chords are parodies/interpretations of the original songs. You may use it for private study, scholarship, research or language learning purposes only
© 2014 AZChords.com Contact us | Privacy policy | DMCA | Add/correct tabs | Request tabs | Top 50 tabs