» » »

Red Hot Chili Peppers, My Lovley Man Bass tabs (ver.1)

Artists:  A B C D E F G H I J K L M N O P Q R S T U V W X Y Z # 

My Lovley Man Bass tabs (ver.1)

Red Hot Chili Peppers Tabs
Rating:
0/5 (0 votes)
My Lovley Man lessons Tabs too difficult? Try these video lessons and learn fast
                Thats the main little thingy

G-----------------------------7-------------|
D------------------7---5/7h9------7---5-----|
A---7--5---7---5----------------------------|
E-------------------------------------------|

Heres the chorus

G-------------------------------------------------
D---------------------------------------------------
A----------------------------------------------------
E---5---3----5---5---0-3--5--7--7---7---7---10h12-12--0--10-12--12---------
Yeah somting like that

Heres the fast solo thing

G----------------------------------------------
D----------5-5-5-7-7-7-9-9-12-12-14--------------------------
A----7-7-7-----------------------------------------
E----------------------------------------------

Eamil me with comments
            

comments powered by Disqus
↑ Back to top | Red Hot Chili Peppers Bass for My Lovley Man. Lyrics for acoustic guitar and electric guitar. Tablatures and chords are parodies/interpretations of the original songs. You may use it for private study, scholarship, research or language learning purposes only