» » »

Red Hot Chili Peppers, My Lovely Man Tabs (ver.2)

Artists:  A B C D E F G H I J K L M N O P Q R S T U V W X Y Z # 

My Lovely Man Tabs (ver.2)

Red Hot Chili Peppers Tabs
 Rating:
4/5 (4 votes)
My Lovely Man lessons Tabs too difficult? Try these video lessons and learn fast
1
                My Lovely Man - Red Hot Chili Peppers

	Album- Blood Sugar Sex Majik

	Tabbed - Ryan Curnow

	INTRO-RIFF 1 (2x)

	"I used to shout across the room to you...."
E---------------------------------------------------------
B---------------------------------------------------------
G---------------------7-----------------------------------
D-------------7-5-7/9---9-7/5-----------------------------
A-7-5-7-5-7-5-----------------7-5-7-5-7-5---------5-------
E-----------------------------------------5-3-5/7---7p5/3-

	RIFF 2 (1x)

E------------------------------------------------------
B------------------------------------------------------
G------------------------------------------------------
D-----------------6-4-6-4-6-4-6-4----------------------
A-7-5-7-5-7-5-7-5--------------------------------------
E------------------------------------------------------

	RIFF 1 (2x)
	"Rest with me my lovely brother......"
E---------------------------------------------------------
B---------------------------------------------------------
G---------------------7-----------------------------------
D-------------7-5-7/9---9-7/5-----------------------------
A-7-5-7-5-7-5-----------------7-5-7-5-7-5---------5-------
E-----------------------------------------5-3-5/7---7p5/3-

	RIFF 3-HENDRIX PATTERN(CHORUS)
	"Well i'm cryin, now my lovely man..."
E------------------------------------------------------------
B-13----15--------------------------------------------14-12--
G-12----14--------14-12-----14-12-----------14-12-----14-12--
D-11----13---12h14-----12h14-----12h14p12h14-----12h14-------
A-12----14---------------------------------------------------
E------------------------------------------------------------

RIFF 1
"In my room in all alone....'
E---------------------------------------------------------
B---------------------------------------------------------
G---------------------7-----------------------------------
D-------------7-5-7/9---9-7/5-----------------------------
A-7-5-7-5-7-5-----------------7-5-7-5-7-5---------5-------
E-----------------------------------------5-3-5/7---7p5/3-

RIFF 3(CHORUS)
"Well i'm cryin, now my lovely man..."
E------------------------------------------------------------
B-13----15--------------------------------------------14-12--
G-12----14--------14-12-----14-12-----------14-12-----14-12--
D-11----13---12h14-----12h14-----12h14p12h14-----12h14-------
A-12----14---------------------------------------------------
E------------------------------------------------------------

SOLO in E- it changes

RIFF 1
"Just in case you never knew...."
E---------------------------------------------------------
B---------------------------------------------------------
G---------------------7-----------------------------------
D-------------7-5-7/9---9-7/5-----------------------------
A-7-5-7-5-7-5-----------------7-5-7-5-7-5---------5-------
E-----------------------------------------5-3-5/7---7p5/3-

Ends in chorus

Thats the progression of the song its not 100% but it sounds Ok.
            
Submit corrections

comments powered by Disqus
↑ Back to top | Red Hot Chili Peppers Tabs for My Lovely Man. Lyrics for acoustic guitar and electric guitar. 1 Tablatures and chords are parodies/interpretations of the original songs. You may use it for private study, scholarship, research or language learning purposes only