» » »

Red Hot Chili Peppers, My Lovely Man Tabs (ver.1)

Artists:  A B C D E F G H I J K L M N O P Q R S T U V W X Y Z # 

My Lovely Man Tabs (ver.1)

Red Hot Chili Peppers Tabs
 Rating:
4/5 (4 votes)
My Lovely Man lessons Tabs too difficult? Try these video lessons and learn fast
1
                PROPS GO TO: alan stewart

RED HOT CHILLI PEPPERS

THIS IS A REALLY FUNKY SONG OFF OF THE BLOOD SUGAR SEX MAGIK ALBUM

/=slide

e ---------------------------------------------------------------
B ---------------------------------------------------------------
G -------------------7-------------------------------------------
D ------------7-5-7/9-9-7-5--------------------------------------
A -7-5-7-5-7-5--------------7-5-7-5-7-5--------5-----------------
E --------------------------------------5-3-5/7-7-5-3------------

e -----------------------10--------------------------------------
B -------------10-8-10/12--12-10-8-------------------------------
G ---------------------------------------------------------------
D ---------------------------------------------------------------
A -7-5-7-5-7-5--------------------7-5-7-5-7-5--------5-----------
E --------------------------------------------5-3-5/7-7-5-3------

e ---------------------------------------------------------------
B ---------------------------------------------------------------
G ---------------------------------------------------------------
D ---------------------------------------------------------------
A -7-5-7-5-7-5-7-5-11-9-11-9-11-9-11-9---------------------------
E ---------------------------------------------------------------

e ---------------------------------------------------------------
B ---------------------------------------------------------------
G -------------------7-------------------------------------------
D ------------7-5-7/9-9-7-5--------------------------------------
A -7-5-7-5-7-5--------------7-5-7-5-7-5--------5-----------------
E --------------------------------------5-3-5/7-7-5-3------------

e -----------------------10--------------------------------------
B -------------10-8-10/12--12-10-8-------------------------------
G ---------------------------------------------------------------
D ---------------------------------------------------------------
A -7-5-7-5-7-5--------------------7-5-7-5-7-5--------5-----------
E --------------------------------------------5-3-5/7-7-5-3------

e -5-5-5-555-7-7-7-777-------------------------------------------
B -5-5-5-555-7-7-7-777-------------------------------------------
G -5-5-5-555-7-7-7-777-------------------------------------------
D ---------------------------------------------------------------
A ---------------------------------------------------------------
E ---------------------------------------------------------------

THAT PATTERN CONTINUES U SHOULD LISTEN TO THE SONG FOR TIMING
            
Submit corrections

comments powered by Disqus
↑ Back to top | Red Hot Chili Peppers Tabs for My Lovely Man. Lyrics for acoustic guitar and electric guitar. 1 Tablatures and chords are parodies/interpretations of the original songs. You may use it for private study, scholarship, research or language learning purposes only