» » »

My Friend Tabs (ver.6)

Artists:  A B C D E F G H I J K L M N O P Q R S T U V W X Y Z # 

My Friend Tabs (ver.6)

Red Hot Chili Peppers
Rating:
0/5 (0 votes)

Hard to play? Try these video lessons and learn fast.
                (Complete)
v strum down 
^ strum up

you'll have to find the lyrics somewhere else. I are not to good words
You can use the intro for the first verse if you want.
This is one of my favorite songs by red hot chili peppers
including soul to squeeze and under the bridge.
Live on RHCP
intro

-|-----0---------0---------------------------|-----0---------0----------------
-|-----3---------3-------3-------------------|-----3---------3-------3--------
-|---2-2-2---0h2-2-------0-----------0h2p0---|---2-2-2---0h2-2-------0--------
-|-0-----0-3-------3---0-0-------0h2-------2-|-0-----0-3-------3---0-0---2-0--
-|-------------------2-----2-2h3-------------|-------------------2-----2-3-2--
-|-------------------------------------------|---------------------------3-3--
   v ^ v ^ v v   ^ ^ v ^ v ^ v   v   v     ^                             v v  

-|-----0---------0-----------------------|-------0-----------0----------------
-|-----3---------3-------3---------------|-------3-----------3----------------
-|---2-2-2---0h2-2-------0-----------0---|-----2-2---2-----2-2---2-------0----
-|-0-----0-3-------3---0-0-------0h2---2-|-0-0-----0---3-3-----3---------0----
-|-------------------2-----2-2h3---------|-------------------------2-2-2-2----
-|---------------------------------------|-------------------------3-3-3------
  use this or intro for first verse  ^ v   v v ^ continue rythm  verse 2      

-----------------|-0-----------------------0-----------------------0----------
-----------1-----|-1-1-1-1-1-1-0-0-0-0-0-0-0-0-0-0-0-0-0-0-0-0-0-0-1--1-1-1---
-------0-0-0-0-0-|-0-0-0-0-0-0-0-0-0-0-0-0-2-2-2-2-2-2-2-2-2-2-2-2-0--0-0-0---
-0-0-2-2-2-2-2-2-|-2-----------------------2-----------------------2----------
-2-2-3-3-3-------|-3-----------------------0-----------------------3----------
-3-3-------------|------------------------------------------------------------
                   v v ^continue rythm  chorus   play mid quietly  v  v v ^   

---2-----0----------------|---------------------------------------------------
---3-----0--0-0-0-0-0-0-0-|---------------------------------------------------
---2---2-2--2-2-2-2-2-2-2-|-8-1111117-7-9-5-5-5-7-4v-4-4-5-5-7-7-8-1111111111-
---0---0-2--2-2-2-2-2-2-2-|-x-x-x-x-x-x---x-x-x---x--x-x-x-x---x-x-x-x-x-x-x--
---0-----0----------------|-6/9-9-9-5-5/7\3-3-3/5-2v-2-2/3-3/5-5-6/9-9-9-9-9--
---------0----------------|-----------------------0--0-0-0-0---0--------------
   v   v v  v ^ v v v ^ v   solo      play ver 2 chords throughout            

-----------------------------------------------|----------------------------|-
-----------------------------------------------|----------------------------|-
-111114-14-14-14-14-14-14-16-12v-9--18b19b20---|----------------------------|-
-x-x-x--x--x--x--x--x--x-----x---x-------------|----------------------------|-
-9-9/12-12-12-12-12-12-12/14/10v-7-------------|----------------------------|-
-----------------------------------------------|----------------------------|-
                                   bend throughout,second time 9onA instead   

-|------------------------------------0--0--0-0--0--0--0--0-0--0--0-0-0--0--0-
-|-0--0--0-0--0--0--0--0-0--0---------0--0--0-0--0--0--0--0-0--0--0-0-0--0--0-
-|-9--9--9-9--9--7--7--7-7--7--7---5--5--5--5-5--5--4--4--4-4--4--4-4-5--5--5-
-|-9--9--9-9--9--7--7--7-7--7--x---x--5--5--5-5--5--4--4--4-4--4--4-4-5--5--5-
-|-7--7--7-7--7--5--5--5-5--5--5/7\3--3--3--3-3--3--2--2--2-2--2--2-2-3--3--3-
-|-0--0-------7--0--0-------0---------3--3--3-3--3--0--0--0-0--0--0-0-3--3--3-
   v  v  ^ v  ^  continue      v   ^  v  v  ^ v  ^  v  v  ^ v  ^  v ^         

--0-0--0--0-0-0-0-0---------------------------------------------------------|-
--0-0--0--0-0-0-0-0--0--0--0--0--0--0----------------0-0-0-0-0-0-0-0-0-0-0-0|-
--5-5--5--5-5-5-5-8--8--8--8--8--8--8----------3-3-3-3-3-3-3-3-3-3-3-3-3-3-3|-
--5-5--5--5-5-5-5-9--9--9--9--9--9--9----4-4-4-4-4-4-4-4-4-4-4-4-4-4-4-4-4-4|-
--3-3--3--3-3-3-3/9--9--9--9--9--9--9\-1-1-1-1-1-1-1-1-1-1-1-1-1-1-1--------|-
--3-3--3--3-3-3-3/7--7--7--7--7--7--7\-2-2-2-2-2-2-2-2-2-2-2-2--------------|-
 interlude    v ^ v  ^  v  ^  v  ^  v  v v v v v v v v v v v v v ^ v v ^ v ^  

-|---------|------------|-0-0-0-0-0-0-0-0-0-0-0-0-0-0-0-0--|-0-0-0-0-0-0-0-0--
-|---------|------------|-10101010101010101010101010101010-|-1010101010101010-
-|---------|------------|-11111111111111111212121212121212-|-1010101010101010-
-|---------|------------|-0-0-0-0-0-0-0-0-0-0-0-0-0-0-0-0--|-0-0-0-0-0-0-0-0--
-|---------|------------|----------------------------------|------------------
-|---------|------------|----------------------------------|------------------
   verse      chorus      verse 2 chords throughout            1st ending     

--0-0-0-0-0-0-0-0-|-0-0-0-0-0-0-0-0-0-0-0-0-0-0-0-0-|-------------|-----------
-1010101010101010-|-5-5-5-5-5-5-5-5-5-5-5-5-5-5-5-5-|------2------|-----3-----
--9-9-9-9-9-9-9-9-|-5-5-5-5-5-5-5-5-5-5-5-5-5-5-5-5-|------3------|---2---2---
--0-0-0-0-0-0-0-0-|-0-0-0-0-0-0-0-0-0-0-0-0-0-0-0-0-|------0------|-0-------3-
------------------|---------------------------------|------0------|-----------
------------------|---------------------------------|-------------|-----------
                      2nd ending                                  outro       

---------------------------0-------------------|------------------------------
---3-------3---------------3-------------------|------------------------------
-2-2-------0-----------0---2-------------------|------------------------------
-----3---0---------0h2---2-0--0---------0---0--|------------------------------
-------2-----2-2h3--------------2-----2-----0--|------------------------------
----------------------------------3-1-----1----|------------------------------
            
Hard to play? Try these video lessons and learn fast. | Correct




comments powered by Disqus
↑ Back to top | Tablatures and chords are parodies/interpretations of the original songs. You may use it for private study, scholarship, research or language learning purposes only