» » »

Red Hot Chili Peppers, Intro To Slane Tabs (ver.1)

Artists:  A B C D E F G H I J K L M N O P Q R S T U V W X Y Z # 

Intro To Slane Tabs (ver.1)

Red Hot Chili Peppers Tabs
Rating:
0/5 (0 votes)
Hard to play? Try these video lessons and learn fast.
                I hope this is right, spent ages tabbing it, so here ya go….

|------------------------------------------------------------------------------------------------|
|------------------------------------------------------------------------------------------------|
|------------------------------------------------------------------------------------------------|
|------------------------------------------------------------------------------------------------|
|---------------------------------------------------------10---10------------------------------|
|--10--10---12-13--13--12--10--8--10--10-10-8------------10--12-13-15--12-10-8--|

|------------------------------------------------------------------------------------------------|
|------------------------------------------------------------------------------------------------|
|------------------------------------------------------------------------------------------------|
|------------------------------------------------------------------------------------------------|
|------------------------10---------------------------------------------------------------------|
|-10-10-10-10-10-8-------------------------------------------------------------------------|   x 2

The second time you do this, the ending is slightly different, something like this-

|---------------10---------10------------------------------------------------------------------|
|--10-10-10------10-10-----10--------------------------------------------------------------|

all of this is on the e string-

|-17-17-17-17-15--13-15-13-12-13-13-15/17-17-15-13-12-13 15/17--17-15-13---| 

|-12--15---15--13-17-15-13-12-13-14-20-17-15-12-13-15/17-17-15-13-12-13-15-13--|

the 13-15-13 part is repeated until it goes into this –

|-12-10-10-12-10-10-12-10-10-----|  and this is repeated until-

|----------------------------------------10-10-10--10-10---------------------------------------------|
|--12-10-10-12---10-10-8—8-8-8----------------------17-15-15-17-15-15-17-15-15-17-----|

                                bend (only the 21s)
|-17-15-15-17-17/20-17/20-17/20-21--21-20-17-21-20—18-17-18-17-13-15-17-15-13--|

|-20—18-17-18-17-13-15-12----15-13-15-13-15-13-15-13-15-13----10----10\--|
            

comments powered by Disqus
↑ Back to top | Red Hot Chili Peppers Tabs for Intro To Slane. Lyrics for acoustic guitar and electric guitar. Tablatures and chords are parodies/interpretations of the original songs. You may use it for private study, scholarship, research or language learning purposes only