» » »

I Like Dirt Tabs (ver.1)

Artists:  A B C D E F G H I J K L M N O P Q R S T U V W X Y Z # 

I Like Dirt Tabs (ver.1)

Red Hot Chili Peppers
Rating:
0/5 (0 votes)

Hard to play? Try these video lessons and learn fast.
                intro

e|--7--7------7--7------7--7------7--7-----x-x-x-x------------------
b|--7--7------7--7------7--7------7--7------------------------------
g|--7--7------7--7------7--7------7--7--------------x---------------
d|--------------------------------------------------x---------------
a|------------------------------------------------------------------
e|------------------------------------------------------------------

verse

e|--x-x-7------x-x-7-x---x---7---10-10-10---10---10-----------------
b|--x-x-7------x-x-7-x---x---7----x--x--x----x----x-----------------
g|--x-x-7------x-x-7-x---x---7----7--7--7----7----7------7----------
d|------------------------------------------------------------------
a|------------------------------------------------------------------
e|------------------------------------------------------------------

e|--x---7-7-------x-10---10-x-x-10---7---7-7---7---10---10---x-10---
b|--x---7-7-------x--x----x-x-x--x---7---7-7---7----x----7---x--7---
g|--x---7-7-9-7---x--7----7-x-x--7---7---7-7-9-7----7----7---x--7---
d|------------------------------------------------------------------
a|------------------------------------------------------------------
e|------------------------------------------------------------------
                    
                     chorus
e|--7---x-7-7-7-7--|-7---7------10-x-7---10-10-10-7---x-------------
b|--7---x-7-7-7-7--|-7---7-------x-x-7----x--x--x-7---x-------------
g|--7---x-7-7-7-7--|-7---7-------7-x-7----7--7--7-7---x-7-----------
d|-----------------|------------------------------------------------
a|-----------------|------------------------------------------------
e|-----------------|------------------------------------------------

e|--x-x-7-7-x-7-----10-10-------------------------------------------
b|--x-x---7-x-7---x--7--7-------------------------------------------
g|--x-x---7-x-7------7--7---7---------------------------------------
d|------------------------------------------------------------------
a|------------------------------------------------------------------
e|------------------------------------------------------------------

verse

e|--x---x-x-x---7-------------22---x-22---22-x-x-7---x--------------
b|--x---x-x-x---7---8---9-7----x---x--x----x-x-x-7---x---9-7--------
g|--x-7-x-x-x---7---8---9-7---19---x-19---19-x-x-7---x---7-7---x----
d|------------------------------------------------------------------
a|------------------------------------------------------------------
e|------------------------------------------------------------------

e|--x-10---7-x-x-7---7---x-10-10-10-7---10---10-x-x-7-x-7-----------
b|--x--7---7-x-x-7---7---x--7--7--7-7----x----x-x-x-7-x-7-----------
g|--x--7---7-x-x-7---7---x--7--7--7-7----7----7-x-x-7-x-7-----------
d|------------------------------------------------------------------
a|------------------------------------------------------------------
e|------------------------------------------------------------------

e|--x-7-7-7-7---x-7---7-x-x-7---7-x-x-7-7-------7---7-x---10---7----
b|--x-7-7-7-7---x-7---7-x-x-7---7-x-x-7-7-------7---7-x----7---7----
g|--x-7-7-7-7---x-7---7-x-x-7---7-x-x-7-7---7---7---7-x----7---7----
d|------------------------------------------------------------------
a|------------------------------------------------------------------
e|------------------------------------------------------------------

e|----7-7---7-------------------------------------------------------
b|--x-7-7---7-------------------------------------------------------
g|--x-7-7---7-------------------------------------------------------
d|------------------------------------------------------------------
a|------------------------------------------------------------------
e|------------------------------------------------------------------

chorus

e|--7---7-x---22-------------x-7---7-x---22-------------------------
b|--7---7-x----x---22--------x-7---7-x----x---22--------------------
g|--7---7-----19----x--------x-7---7-x---19----x--------------------
d|--7--------------19-------------------------19--------------------
a|------------------------------------------------------------------
e|------------------------------------------------------------------

e|------------------------------------------------------------------
b|------------------------------------------------------------------
g|--7---------7-----------------7---------7-------------------------
d|----9---9-----9---9-------------9---9-----9---9-------------------
a|------------------------------------------------------------------
e|------------------------------------------------------------------

That's pretty much it. What I have posted is official, so enjoy!
RHCP RULES!!!
            
Hard to play? Try these video lessons and learn fast. | Correct




comments powered by Disqus
↑ Back to top | Tablatures and chords are parodies/interpretations of the original songs. You may use it for private study, scholarship, research or language learning purposes only