» » »

Red Hot Chili Peppers, I Coud Have Lied Tabs (ver.1)

Artists:  A B C D E F G H I J K L M N O P Q R S T U V W X Y Z # 

I Coud Have Lied Tabs (ver.1)

Red Hot Chili Peppers Tabs
 Rating:
4/5 (4 votes)
I Coud Have Lied lessons Tabs too difficult? Try these video lessons and learn fast
                "I Could Have Lied"
Performed on the album Blood Sugar Sex Magik

I found this tab floating around somewhere on the net and saw that it had the solos so I thought that I'd submit it.  I didn't tab this so I take no credit for it or the quality of it.

Intro and Verses: 
Bm A G 
E-|---------------------------------------------------------| 
B-|---------------------------------------------------------| 
G-|---------------------------------------------------------| 
D-|------0------4----0-----4----0------4/7--7---5--4--------| 
A-|-0h2-----2------2----2----2-----2--------0---------5-----| 
E-|------------------------------------------------------3--|x3 


E-|------------------------------------------------------------------| 
B-|------------------------------------2h3p2-------------------------| 
G-|------------------------------------------------------------------| 
D-|------0------4----0-----4----0-------------4/7--7---5---4---------| 
A-|-0h2-----2------2----2----2-----2---------------0-----------5-----| 
E-|----------------------------------------------------------------3-| 

I could never change.. 
E-|-----------------------------------------0-0-0--|
B-|--4-4-4-4-4--x--7-7-7-7-7----------------0-0-0--|
G-|--4-4-4-4-4--x--7-7-7-7-7----6-6-6---4---4-4-4--|
D-|--4-4-4-4-4--x--7-7-7-7-7----7-7-7---5---5-5-5--|
A-|--2-2-2-2-2--x--5-5-5-5-5----7-7-7---5---5-5-5--|
E-|-----------------------------5-5-5---3---3-3-3--| 

Chorus:

Em G D C 

E-|--12-12-12-12-x-15-15-15-15-x-10-10-10-10--xx---8--8--8--8--| 
B-|--12-12-12-12-x-15-15-15-15-x-10-10-10-10--xx---8--8--8--8--| 
G-|--13-13-13-13-x-16-16-16-16-x-11-11-11-11--xx---9--9--9--9--| 
D-|--14-14-14-14-x-17-17-17-17-x-12-12-12-12--xx--10-10-10-10--| 
A-|--14-14-14-14-x-17-17-17-17-x-12-12-12-12--xx--10-10-10-10--| 
E-|--12-12-12-12-x-15-15-15-15-x-10-10-10-10--xx---8--8--8--8--|x2 

Solo 1:

E-|-----------------------------------------------------------------------------| 
B-|---------------------------------------------------------7-7-7-7-----7----7--| 
G-|----------------------------------------------------6/7------------9----9----| 
D-|-----------------7--9----9/[11]--[11]\9---------9----------------------------| 
A-|-----5--7---7/9--------------------------10-10-------------------------------| 
E-|-/7--------------------------------------------------------------------------| 

E-|-----------------------------------------------------------------7-------------| 
B-|--8/[10]--8--7-----------------------------7---------7--------7----7---10/[12]-| 
G-|---------------7---7-7--9-7---9-7----9/11------9/11-----9/11-------------------| 
D-|-------------------------------------------------------------------------------| 
A-|-------------------------------------------------------------------------------| 
E-|-------------------------------------------------------------------------------| 

E-|--7------------------------------------------------------------------------------| 
B-|------10---7---7h10p7------7------------------------------8--7---7h8p7-----------| 
G-|------------------------9------7h9p7-------------------------------------7-------| 
D-|----------------------------------------9---7---9--9--9----------------------9-9-| 
A-|---------------------------------------------------------------------------------| 
E-|---------------------------------------------------------------------------------| 

E-|---------------------------------------------------------------------------| 
B-|----7--------------------------------------------------------15---17/[19]--| 
G-|--7----7---------------------------------------------14--16----------------| 
D-|-----------9----7h9----9--7--9----------12---14/16-------------------------| 
A-|----------------------------------7/14-------------------------------------| 
E-|---------------------------------------------------------------------------| 

E-|--17---15---14----------------------------------------------------------| 
B-|-----------------15---------------------7-------------------------------| 
G-|---------------------14----------7h9----9b[11]--------------------------| 
D-|---------------------------7h9--------------------7h9----9---9\5\4/5\2--| 
A-|------------------------------------------------------------------------| 
E-|------------------------------------------------------------------------| 

Solo 2: 

E-|-------------------------------------------------------------------------------| 
B-|--15b[17]---------------------15---15--12--------------------------------------| 
G-|-----------14--12-14b[16]--12--------------14b[16]--14--12--14--12----14b[16]--| 
D-|-------------------------------------------------------------------------------| 
A-|-------------------------------------------------------------------------------| 
E-|-------------------------------------------------------------------------------| 

E-|------------------------------------------------------------------------| 
B-|------------------------------------------------------------------------| 
G-|-14b[17]----------14---12--12-14-12--14-12------------------------------| 
D-|--------------------------------------------14--14------14-12-14-12-14--| 
A-|------------------------------------------------------------------------| 
E-|------------------------------------------------------------------------| 

E-|----------------------------------------------------------------------------| 
B-|---------------------12----------------------15--12--15--12------12---------| 
G-|----------14b[16]--------12-------14b[16]----------------------------14--12-| 
D-|-12h14-----------------------14---------------------------------------------| 
A-|----------------------------------------------------------------------------| 
E-|----------------------------------------------------------------------------| 

E-|---------------------------------------------------------------------------| 
B-|---------------------------------------------------------------------------| 
G-|--14b[16]-14b[16]br[14]----12--14--12---14b[16]br[14]---12-----11-12-11-12-| 
D-|---------------------------------------------------------------------------| 
A-|---------------------------------------------------------------------------| 
E-|---------------------------------------------------------------------------| 

Hold bend 
E-|----------------------------------------------------------------------------| 
B-|-------------------------------------------------------------------------3--| 
G-|-11b[12]------------------7------------------------------0---2---2b[4]------| 
D-|---------------------9---------9-9\-------------------2---------------------| 
A-|----------------------------------------------------------------------------| 
E-|----------------------------------------------------------------------------| 

E-|--------------------------------------------------------------------------------| 
B-|-----------------------------------------------------------------------------12-| 
G-|--[4]br2----0--2--0--2--0----------------------------------------------------12-| 
D-|------------------------------2h4--------4\2------2--2----2/14---14--14--14--14-| 
A-|--------------------------------------------------------------------------------| 
E-|--------------------------------------------------------------------------------|
            
Submit corrections

comments powered by Disqus
↑ Back to top | Red Hot Chili Peppers Tabs for I Coud Have Lied. Lyrics for acoustic guitar and electric guitar. Tablatures and chords are parodies/interpretations of the original songs. You may use it for private study, scholarship, research or language learning purposes only