» » »

Red Hot Chili Peppers, Higher Ground Bass tabs (ver.2)

Artists:  A B C D E F G H I J K L M N O P Q R S T U V W X Y Z # 

Higher Ground Bass tabs (ver.2)

Red Hot Chili Peppers Tabs
Rating:
0/5 (0 votes)
Hard to play? Try these video lessons and learn fast.
                


Intro (the bass starts it up then the drums and the guitar come in.)
       He uses mostly octives.
g--------------------------------------------------------------- || I think you repeat
d-----2-----------5----------7----------2-----------5---------7-*|| it Four times then,
a---------------------------------------------------------------*||
e-0x-----0---3-3-------5-5---------0x------0---3-3------5-5----- ||
  TT  P  T   T T  P    T T   P     TT   P  T   T T  P   T T   P

g------------------------------------------------------------------- 
d-----2-----------5--------7-------2-------2------------------------
a--------------------------------------------------------3----------
e-0x-----0---3-3------5-5------0x------0x-----0----3h5------3h5--3-- 
  TT  P  T   T T  P   T T  P   TT  P   TT  P  T

g--------------------------------------------------
d-----2----------5--------7----------2------------- then you go to the intro
a-----------------------------------------5-3------ and repeat god knows how many
e-0x-----0--3-3------5-5---------0x------------5-3- times. then ,
  TT  P  T  T T  P   T T  P      TT  P

g----------------------------- ||
d-----4--------7---------9----*|| repeat (?)of x's
a-----------------------------*||
e-2x------5-5------7-7-------- ||
  TT  P   T T  P   T T   P

g-----7-------6--------4-------3-- ||
d---------------------------------*|| then you go back to the intro
a-5-5----4-4-----2-2------1-1-----*||
e--------------------------------- ||
  T T P  T T  P  T T   P  T T  P



g--------------------------------------------------------------------------
d-----------------------5---------5----------------------------------------*
a-----------------777-------777------------------------555------555--------*
e-x5-5-3-5-3-5--------------------------x5-5-3-5-3-5-------5h7-------5h7---

I'm not so sure.

g----11h9----------------------------------
d----------x11h9---------9h7--------------- Then you go back to the intro
a-9----------------10h9-------9h7---5--7h8- and figure it out yourself on the
e------------------------------------------ order it goes.
            

comments powered by Disqus
↑ Back to top | Red Hot Chili Peppers Bass for Higher Ground. Lyrics for acoustic guitar and electric guitar. Tablatures and chords are parodies/interpretations of the original songs. You may use it for private study, scholarship, research or language learning purposes only