>
 >
Havana Affair 4

Havana Affair 4 Guitar Tabs

Red Hot Chili Peppers - Havana Affair 4 chords, tabs, tablatures, lyrics

Guitar lessons | Add/correct | Request | Top 50 tabs Artists:  A B C D E F G H I J K L M N O P Q R S T U V W X Y Z 0-9

Havana Affair 4 Guitar Tabs – Red Hot Chili Peppers

CD, Sheet music, Poster

Do you like Havana Affair 4? Share with your friends now
Bass TabsBass Tabs v2ChordsChords v2TabsTabs v2Tabs v3Tabs v4Tabs v5
-------------------------------------------------------------------------------
-------------------------------------------------------------------------------

Tuning:Standard
  INTRO:
e|----------------------2--------------------------------2--------------------|
B|-------3------------3----------2--------3------------3----------2-----------|
G|-----4---4---4----2----------2--------4---4---4----2----------2-------------|
D|---4------------0----------2--------4------------0----------2---------------|
A|-2---------2-------------0--------2---------2-------------0-----------------|
E|---------------------------------------------------------------------------|
  VERSE:
e|---------------------------------------------------------------------------|
B|-------3-------------------------2------------3-2-------3------------------|
G|-----4---4----------4----------2---2------------------4---4---------4------|
D|---4-------4------5---5------2-------2------4-------4-------4-----5---5----|
A|-2--------------5-------5--0--------------4-------2-------------5-------5--|
E|--------------3-------------------------2---------------------3------------|
                           CHORUS:
e|-------------------------3---3-3---3-3-3-2--2---3---3-3---3-3-3-2---2------|
B|-------2------------3-2--3---3-3---3-3-3-2--2---3---3-3---3-3-3-2---2------|
G|-----2---2---------------4---4-4---4-4-4-3--3---4---4-4---4-4-4-3---3------|
D|---2-------2-----4-------5---5-5---5-5-5-4--4---5---5-5---5-5-5-4---4------|
A|-0-------------4---------5---5-5---5-5-5-4--4---5---5-5---5-5-5-4---4------|
E|-------------2-----------3---3-3---3-3-3-2--2---3---3-3---3-3-3-2---2------|

e|---------------------------------------------------------------------------|
B|-------3------------------------------3------------------------------------|
G|-----4---4---4--------4-------4-----4---4---4-------4-------4--------------|
D|---4----------------5-------3-----4---------------5-------3----------------|
A|-2---------2------5-------3-----2---------2-----5-------3------------------|
E|----------------3-------2---------------------3-------2--------------------|
  VERSE:
e|---------------------------------------------------------------------------|
B|-------3------------------------2-----------3-2----------------------------|
G|-----4---4---------4----------2---2--------------------3------------4------|
D|---4-------4-----5---5------2-------2-----4----------4---4--------5---5----|
A|-2-------------5-------5--0-------------4----------4-------4----5-------5--|
E|-------------3------------------------2----------2------------3------------|
                          CHORUS:
e|------------------------3---3-3---3-3-3-2---2--3---3-3---3-3-3-2---2-------|
B|-------2------------3-2-3---3-3---3-3-3-2---2--3---3-3---3-3-3-2---2-------|
G|-----2---2--------------4---4-4---4-4-4-3---3--4---4-4---4-4-4-3---3-------|
D|---2-------2------4-----5---5-5---5-5-5-4---4--5---5-5---5-5-5-4---4-------|
A|-0--------------4-------5---5-5---5-5-5-4---4--5---5-5---5-5-5-4---4-------|
E|--------------2---------3---3-3---3-3-3-2---2--3---3-3---3-3-3-2---2-------|

e|---------------------------------------------------------------------------|
B|-------3-----------------------------3-------------------------------------|
G|-----4---4---4-------4-------3-----4---4---4-------4-------4---------------|
D|---4---------------5-------4-----4---------------5-------3-----------------|
A|-2---------2-----5-------4-----2---------2-----5-------3-------------------|
E|---------------3-------2---------------------3-------2---------------------|

e|---------------------------------------------------------------------------|
B|---------------------------------------------------------------------------|
G|---------------7-9---------------7-9---------------7-9---------------7-9---|
D|-7h9-9-9-9-9-9-7-9-7h9-9-9-9-9-9-7-9-7h9-9-9-9-9-9-7-9-7h9-9-9-9-9-9-7-9---|
A|-7h9-9-9-9-9-9-5-7-7h9-9-9-9-9-9-5-7-7h9-9-9-9-9-9-5-7-7h9-9-9-9-9-9-5-7---|
E|-7---7-7-7-7-7-----7---7-7-7-7-7-----7---7-7-7-7-7-----7---7-7-7-7-7-------|
  VERSE:
e|---------------------------------------------------------------------------|
B|-------3------------------------2-----------3-2-------3--------------------|
G|-----4---4---------4----------2---2-----------------4---4---------4--------|
D|---4-------4-----5---5------2-------2-----4-------4-------4-----5---5------|
A|-2-------------5-------5--0-------------4-------2-------------5-------5----|
E|-------------3------------------------2---------------------3--------------|
                          CHORUS:
e|------------------------3---3-3---3-3-3-2---2--3---3-3---3-3-3-------------|
B|-------2-----------3-2--3---3-3---3-3-3-2---2--3---3-3---3-3-3-------------|
G|-----2---2--------------4---4-4---4-4-4-3---3--4---4-4---4-4-4-------------|
D|---2-------2-----4------5---5-5---5-5-5-4---4--5---5-5---5-5-5-------------|
A|-0-------------4--------5---5-5---5-5-5-4---4--5---5-5---5-5-5-------------|
E|-------------2----------3---3-3---3-3-3-2---2--3---3-3---3-3-3-------------|

e|---------------------------------------------------------------------------|
B|-------3-----------------------------3-------------------------------------|
G|-----4---4---4-------4-------3-----4---4---4-------4-------4---------------|
D|---4---------------5-------4-----4---------------5-------3-----------------|
A|-2---------2-----5-------4-----2---------2-----5-------3-------------------|
E|---------------3-------2---------------------3-------2---------------------|

e|---------------------------------------------------------------------------|
B|---------------------------------------------------------------------------|
G|---------------7-9---------------7-9---------------7-9---------------7-9---|
D|-7h9-9-9-9-9-9-7-9-7h9-9-9-9-9-9-7-9-7h9-9-9-9-9-9-7-9-7h9-9-9-9-9-9-7-9---|
A|-7h9-9-9-9-9-9-5-7-7h9-9-9-9-9-9-5-7-7h9-9-9-9-9-9-5-7-7h9-9-9-9-9-9-5-7---|
E|-7---7-7-7-7-7-----7---7-7-7-7-7-----7---7-7-7-7-7-----7---7-7-7-7-7-------|
  VERSE:
e|---------------------------------------------------------------------------|
B|-------3------------------------2-----------3-2-------3--------------------|
G|-----4---4---------4----------2---2-----------------4---4---------4--------|
D|---4-------4-----5---5------2-------2-----4-------4-------4-----5---5------|
A|-2-------------5-------5--0-------------4-------2-------------5-------5----|
E|-------------3------------------------2---------------------3--------------|
                          CHORUS:
e|------------------------3---3-3---3-3-3-2---2--3---3-3---3-3-3-------------|
B|-------2-----------3-2--3---3-3---3-3-3-2---2--3---3-3---3-3-3-------------|
G|-----2---2--------------4---4-4---4-4-4-3---3--4---4-4---4-4-4-------------|
D|---2-------2-----4------5---5-5---5-5-5-4---4--5---5-5---5-5-5-------------|
A|-0-------------4--------5---5-5---5-5-5-4---4--5---5-5---5-5-5-------------|
E|-------------2----------3---3-3---3-3-3-2---2--3---3-3---3-3-3-------------|

e|---------------------------------------------------------------------------|
B|-------3-----------------------------3-------------------------------------|
G|-----4---4---4-------4-------3-----4---4---4-------4-------4---------------|
D|---4---------------5-------4-----4---------------5-------3-----------------|
A|-2---------2-----5-------4-----2---------2-----5-------3-------------------|
E|---------------3-------2---------------------3-------2---------------------|


| /  slide up
| \  slide down
| h  hammer-on
| p  pull-off
| ~  vibrato
| +  harmonic
| x  Mute note
===============================================================================





Comments


Popular Red Hot Chili Peppers tabs & chords
Backwoods 2 Bass Tabs
Give It Away 5 Bass Tabs
Good Time Boys 5 Bass Tabs
Hump De Bump 2 Bass Tabs
Organic Anti Beat Box Band 1 Bass Tabs
Cabron 1 Chords
Californication Chords
Annie Wants A Baby Tabs
Desecration Smile 2 Tabs
One Hot Minute Tabs


Song lyrics



↑ Back to top | Tablatures and chords are parodies/interpretations of the original songs. You may use it for private study, scholarship, research or language learning purposes only
© 2014 AZChords.com Contact us | Privacy policy | DMCA | Add/correct tabs | Request tabs | Top 50 tabs