» » »

Hard To Concentrate Bass tabs (ver.2)

Artists:  A B C D E F G H I J K L M N O P Q R S T U V W X Y Z # 

Hard To Concentrate Bass tabs (ver.2)

Red Hot Chili Peppers
Rating:
0/5 (0 votes)

Tabs too difficult? Try these video lessons and learn fast.
                INTRO & RIFF
G---16--14--12--14--12--16--14--12--14--12-|
D------------------------------------------|
A------------------------------------------|
E-12--12--12--12--12--12--12--12--12--12---|

G-----11-----11-11----11-----11-11-|
D---12--------------12-------------|
A----------------------------------|
E-10----10-7---7--10----10-7---7---|x4
CHORUS
G----12----12--12----11-----14-12-|
D--10--------------12-------------|
A--------10--10-------------------|
E-8----8---------10----10-12------|x3

G----12----12--12----11-----11--11----11------11--11-|
D--10--------------12---------------12---------------|
A--------10--10--------------------------------------|
E-8----8---------10----10-10--10--10-----10-10--10---|
RIFF
G---16--14--12--14--12--16--14--12--14--12-|
D------------------------------------------|
A------------------------------------------|
E-12--12--12--12--12--12--12--12--12--12---|

G-----11-----11-11----11-----11-11-|
D---12--------------12-------------|
A----------------------------------|
E-10----10-7---7--10----10-7---7---|x2
CHORUS
G----12----12--12----11-----14-12-|
D--10--------------12-------------|
A--------10--10-------------------|
E-8----8---------10----10-12------|x3

G----12----12--12----11-----11--11----11------11--11-|
D--10--------------12---------------12---------------|
A--------10--10--------------------------------------|
E-8----8---------10----10-10--10--10-----10-10--10---|
RIFF
G---16--14--12--14--12--16--14--12--14--12-|
D------------------------------------------|
A------------------------------------------|
E-12--12--12--12--12--12--12--12--12--12---|

G-----11-----11-11----11-----11-11-|
D---12--------------12-------------|
A----------------------------------|
E-10----10-7---7--10----10-7---7---|x2
CHORUS
G----12----12--12----11-----14-12-|
D--10--------------12-------------|
A--------10--10-------------------|
E-8----8---------10----10-12------|x3

G----12----12--12----11-----11--11----11------11--11-|
D--10--------------12---------------12---------------|
A--------10--10--------------------------------------|
E-8----8---------10----10-10--10--10-----10-10--10---|
BRIDGE
G--------------------------------------------------------|
D--------------------------------------------------------|
A----10~---------10~---------10~---------10~-------------|
E-8~-----10~--8~-----10~--8~-----10~--8~-----10-10-10-10-|
The last 10's aren't played four tims their played more.
RIFF
G---16--14--12--14--12--16--14--12--14--12-|
D------------------------------------------|
A------------------------------------------|
E-12--12--12--12--12--12--12--12--12--12---|

G-----11-----11-11----11-----11-11-|
D---12--------------12-------------|
A----------------------------------|
E-10----10-7---7--10----10-7---7---|x2
CHORUS
G----12----12--12----11-----14-12-|
D--10--------------12-------------|
A--------10--10-------------------|
E-8----8---------10----10-12------|x3

G----12----12--12----11-----11--11----11------11--11-|
D--10--------------12---------------12---------------|
A--------10--10--------------------------------------|
E-8----8---------10----10-10--10--10-----10-10--10---|
Do the chorus twice then end on 12 on the E string.
            
Tabs too difficult? Try these video lessons and learn fast.


comments powered by Disqus
↑ Back to top | Tablatures and chords are parodies/interpretations of the original songs. You may use it for private study, scholarship, research or language learning purposes only