» » »

Good Time Boys Bass tabs (ver.5)

Artists:  A B C D E F G H I J K L M N O P Q R S T U V W X Y Z # 

Good Time Boys Bass tabs (ver.5)

Red Hot Chili Peppers
Rating:
0/5 (0 votes)

Hard to play? Try these video lessons and learn fast.
                Good Time Boys
Red Hot Chili Peppers
Mothers Milk '89


NOTE: Flea does tons of variations. I just want to give the basic idea. Because every 
tab of this song online is wrong

Intro
|-7-7--7-7--7-7--7-7--7-7--7-7--7-7--7-7--7-7--7-7--7-7-|
|-------------------------------------------------------|
|-------------------------------------------------------|
|-------------------------------------------------------|
  p p  p p  p p  p p  p p  p p  p p  p p  p p  p p  p p

|-7-7--7-7--7-7--7-7--7-7--7-7--7-7--7-7------------|
|---------------------------------------------------|
|---------------------------------------------------|
|-------------------------------------------x3/17\--|
   p p  p p  p p  p p  p p  p p  p p  p p    t


2nd part of Intro/ Verses
*after the second chorus they repeat this entire thing.
|------------------------------|-----------------------|-------------------------------|
|------------------------------|-----------------------|-------------------------------|
|-------7---7---7---10-------7-|-------7---7---7-------|-------7---7---7---10----0---7-|
|-0---9---9---9---9------0-9---|-0---9---9---9-----6-3-|-0---9---9---9---9---------9---|

*
|-----------------------------|------------------------------|-----------------------|
|-----------------------------|------------------------------|-----------------------|
|-------7---7------5----------|-7-----7---7---7---10-------7-|-77----7---7---7-------|
|-0---9---9----5-7---7-6-5-3--|-----9---9---9---9------0-9---|-----9---9---9----6--3-|


|-------------------------------|---------------6--------6-------|
|-------------------------------|------------------7--4-----7--4-|
|--------7---7---7---10-------7-|--------7---7-------------------|
|-00---9---9---9---9------0-9---|-00---9---9---------------------|


 "..i'm talkin bout my buddies f**k it up fishbone
 "we're the best of the west and the west is ours"
|-----------------------------------------3-------|
|-------------------------------------------------|
|-------------------------------------------------|
|-------------------------------------------------|
                                         p

we like to think we make a sad man happy
and we like to make proud our mammy and our pappy
|----------------------------|-----------------------------|
|-----------5-----------7--7-|-----------5-----------------|
|-5-7-7-5-7-----7-7-5-7------|-5-7-7-5-7-----7-5-----------|
|----------------------------|-------------------7-6--5--5-|

|----------------------------|-----------------------------|
|-----------5-----------7--7-|-----------5------------7--7-|
|-5-7-7-5-7-----7-7-5-7------|-5-7-7-5-7-----7-5-----------|
|----------------------------|-------------------7-6-------|

Last Time Before Chorus
|-------------------------------|---------------------------------|
|-------------------------------|---------------------------------|
|-------7---7---7---10------5-6-|-7-7-7-7-7-7-7-7-7-7-7-7-7-7-7-7-|
|-0---9---9---9---9-------7-----|---------------------------------|


Chorus
"Good...Good time boys...make...me feel good...good...the good times...
-----------------------|---------9----------|------------------------|
--------9--------------|--------------------|---------x--------------|
-------------5----7----|-7--------5----7----|--------------5---7-----|
-7---------------------|--------------------|--7---------------------|
 t      p    t    t      t      p t    t       t      p    t   t

yea yea..yea yea
|-----------------|
|-----------------|
|-----------------|
|-3-3-3-3-3-3-x-3-|


Little riff after "she's a white giirl.."
|-------3h4--------------------------------------------------------3-------------------|
|-5-3-0-----5-3-0-2-3-------------------------------------------3----------------------|
|---------------------3-1--1-3-1-3-4-3-1-3-1--------1--3--4--5--------5--4--3--1-------|
|--------------------------------------------3-1-3--------------------------------1--3-|
            
Hard to play? Try these video lessons and learn fast. | Correct




comments powered by Disqus
↑ Back to top | Tablatures and chords are parodies/interpretations of the original songs. You may use it for private study, scholarship, research or language learning purposes only