>
 >
Good Time Boys 3

Good Time Boys 3 Bass Tabs

Red Hot Chili Peppers - Good Time Boys 3 chords, tabs, tablatures, lyrics

Guitar lessons | Add/correct | Request | Top 50 tabs Artists:  A B C D E F G H I J K L M N O P Q R S T U V W X Y Z 0-9

Good Time Boys 3 Bass Tabs – Red Hot Chili Peppers

CD, Sheet music, Poster

Do you like Good Time Boys 3? Share with your friends now
Bass TabsBass Tabs v2Bass Tabs v3Bass Tabs v4Bass Tabs v5Bass Tabs v6Tabs
Good Time Boys
Red Hot Chili Peppers
Mother's Milk

Tempo = 93
Electric Bass

Legend
L - tied note
x - dead note
h - hammer on/pull off
b - bend
s - slide
~ - vibrato
g - ghost note
> - accentuated note
t - trill
M - palm mute
. - staccato
P - popping (bass)
S - slapping (bass)
+ - tapping
W - wide vibrato
< - fade in
w - whammy bar
= - tremolo picking
v - brush up
^ - brush down
V - pick stroke up
n - pick stroke down

     P  P     P  P     P  P     P  P     P  P     P     
G |--7--7-----7--7-----7--7-----7--7-----7--7-----7----|
D |----------------------------------------------------|
A |----------------------------------------------------|
E |----------------------------------------------------|

  P     P  P     P  P     P  P     P  P     P  P     
--7-----7--7-----7--7-----7--7-----7--7-----7--7----|
----------------------------------------------------|
----------------------------------------------------|
----------------------------------------------------|

     P  P     P  P     P  P     P  P     P  P        
-----7--7-----7--7-----7--7-----7--7-----7--7-------|
----------------------------------------------------|
----------------------------------------------------|
----------------------------------------------------|

  P  P     P  P     P  P     S  S     S              
--7--7-----7--7-----7--7----------------------------|
----------------------------------------------------|
----------------------------------------------------|
-----------------------------0--3-----5s------------|

                                                     
----------------------------------------------------|
--------------------------------5L----5-------------|
-----------5--7--5--7--5--7--5-----------7--5--7----|
--0-------------------------------------------------|

                                                     
----------------------------------------------------|
----------------------------------------------------|
-----------5--7--5--7--5--7.------------------------|
--0-----------------------------6.----3b------------|

                                                     
----------------------------------------------------|
--------------------------------5L----5-------------|
-----------5--7--5--7--5--7--5-----------7--5--7----|
--0-------------------------------------------------|

                                                     
----------------------------------------------------|
----------------------------------------------------|
-----------5--7--5--7--5--------5-------------------|
--0-----------------------5--6-----7--5--5--3b------|

                                                     
----------------------------------------------------|
--------------------------------5L----5-------------|
-----------5--7--5--7--5--7--5-----------7--5--7----|
--0-------------------------------------------------|

                                                     
----------------------------------------------------|
----------------------------------------------------|
-----------5--7--5--7--5--7.------------------------|
--0-----------------------------6.----3b------------|

                                                     
----------------------------------------------------|
--------------------------------5L----5-------------|
-----------5--7--5--7--5--7--5-----------7--5--7----|
--0-------------------------------------------------|

                                                                                
--------------------------------------------------------------------------6-----
--------------------------------------------------------------------------------
-----------------------------5--------7--------5--------7--------5--------------
--0-----------------------------------------------------------------------------

                                                                     
------------------------------6-------------------------------------|
------7-----------4-----------------------7-----------4-------------|
--------------------------------------------------------------------|
--------------------------------------------------------------------|

                                                     
----------------------------------------------------|
--------------------------------5L----5-------------|
-----------5--7--5--7--5--7--5-----------7--5--7----|
--0-------------------------------------------------|

                                                     
----------------------------------------------------|
----------------------------------------------------|
-----------5--7--5--7--5--7.------------------------|
--0-----------------------------6.----3b------------|

                                                     
----------------------------------------------------|
--------------------------------5L----5-------------|
-----------5--7--5--7--5--7--5-----------7--5--7----|
--0-------------------------------------------------|

                                                     
----------------------------------------------------|
----------------------------------------------------|
-----------5--7--5--7--5--------5-------------------|
--0-----------------------5--6-----6--5--3----------|

                                                     
----------------------------------------------------|
-----------------5-----------------------7-----7----|
--5--7--7--5--7-----------7--7--5--7----------------|
----------------------------------------------------|

                                                     
----------------------------------------------------|
-----------------5----------------------------------|
--5--7--7--5--7-----------7--5----------------------|
--------------------------------7--0-----5-----5----|

                                                     
----------------------------------------------------|
-----------------5-----------------------7-----7----|
--5--7--7--5--7-----------7--7--5--7----------------|
----------------------------------------------------|

                                                     
----------------------------------------------------|
-----------------5----------------------------------|
--5--7--7--5--7-----------7--5----------------------|
--------------------------------7--0-----5-----5----|

                                                     
----------------------------------------------------|
--------------------------------5L----5-------------|
-----------5--7--5--7--5--7--5-----------7--5--7----|
--0-------------------------------------------------|

                                                     
----------------------------------------------------|
----------------------------------------------------|
-----------5--7--5--7--5--7.------------------------|
--0-----------------------------6.----3b------------|

                                                     
----------------------------------------------------|
--------------------------------5L----5-------------|
-----------5--7--5--7--5--7--5-----------7--5-------|
--0-------------------------------------------------|

                             
----------------------------|
----------------------------|
-----------------8----------|
--0-------------------------|

                                                     
----------------------------------------------------|
--------------------------------5L----5-------------|
-----------5--7--5--7--5--7--5-----------7--5--7----|
--0-------------------------------------------------|

                                                     
----------------------------------------------------|
----------------------------------------------------|
-----------5--7--5--7--5--7.------------------------|
--0-----------------------------6.----3b------------|

                                                     
----------------------------------------------------|
--------------------------------5L----5-------------|
-----------5--7--5--7--5--7--5--------------4--5----|
--0--------------------------------------0----------|

                                                     
----------------------------------------------------|
----------------------------------------------------|
--7--7--7--7--7--7--7--7--7--7--7--7--7--7--7.------|
----------------------------------------------------|

                                                     
----------------------------------------------------|
-----------------9----------------------------------|
-----------------------5L-5-----7-------------------|
--7-----------------7-------------------------------|

                                                     
-----------------9----------------------------------|
----------------------------------------------------|
--7-----------------7--5L-5-----7-------------------|
----------------------------------------------------|

                                                     
----------------------------------------------------|
-----------------9----------------------------------|
-----------------------5L-5-----7-------------------|
--7-----------------7-------------------------------|

                                                     
----------------------------------------------------|
----------------------------------------------------|
----------------------------------------------------|
--3-----3-----3-----3-----3-----3--------3--3-------|

                                                     
----------------------------------------------------|
-----------------9----------------------------------|
-----------------------5L-5-----7-------------------|
--7-----------------7-------------------------------|

                                                     
-----------------9----------------------------------|
----------------------------------------------------|
--7-----------------7--5L-5-----7-------------------|
----------------------------------------------------|

                                                     
----------------------------------------------------|
-----------------9----------------------------------|
-----------------------5L-5-----7-------------------|
--7-----------------7-------------------------------|

                             
----------------------------|
----------------------------|
----------------------------|
--3--3--3--3--3--3--3--3----|

                                                     
----------------------------------------------------|
--------------------------------5L----5-------------|
-----------5--7--5--7--5--7--5-----------7--5--7----|
--0-------------------------------------------------|

                                                     
----------------------------------------------------|
----------------------------------------------------|
-----------5--7--5--7--5--7.------------------------|
--0-----------------------------6.----3b------------|

                                                     
----------------------------------------------------|
--------------------------------5L----5-------------|
-----------5--7--5--7--5--7--5-----------7--5--7----|
--0-------------------------------------------------|

                                                                                
--------------------------------------------------------------------------6-----
--------------------------------------------------------------------------------
-----------------------------5--------7--------5--------7.----------------------
--0-----------------------------------------------------------------------------

                                                                     
------------------------------6-------------------------------------|
------7-----------4-----------------------7-----------4-------------| 
--------------------------------------------------------------------|
--------------------------------------------------------------------|

%                                                     
----------------------------------------------------|
--------------------------------5L----5-------------|
-----------5--7--5--7--5--7--5-----------7--5--7----|
--0-------------------------------------------------|

                                                     
----------------------------------------------------|
----------------------------------------------------|
-----------5--7--5--7--5--7.------------------------|
--0-----------------------------6.----3b------------|

                                                     
----------------------------------------------------|
--------------------------------5L----5-------------|
-----------5--7--5--7--5--7--5-----------7--5--7----|
--0-------------------------------------------------|

                                                     
----------------------------------------------------|
----------------------------------------------------|
-----------5--7--5--7--5--------5-------------------|
--0-----------------------5--6-----6--5--3----------|

                                                     
----------------------------------------------------|
-----------------5-----------------------7-----7----|
--5--7--7--5--7-----------7--7--5--7----------------|
----------------------------------------------------|

                                                     
----------------------------------------------------|
-----------------5----------------------------------|
--5--7--7--5--7-----------7--5----------------------|
--------------------------------7--0-----5-----5----|

                                                     
----------------------------------------------------|
-----------------5-----------------------7-----7----|
--5--7--7--5--7-----------7--7--5--7----------------|
----------------------------------------------------|

                                                     
----------------------------------------------------|
-----------------5----------------------------------|
--5--7--7--5--7-----------7--5----------------------|
--------------------------------7--0-----5-----5----|

                                                     
----------------------------------------------------|
--------------------------------5L----5-------------|
-----------5--7--5--7--5--7--5-----------7--5--7----|
--0-------------------------------------------------|

                                                     
----------------------------------------------------|
----------------------------------------------------|
-----------5--7--5--7--5--7.------------------------|
--0-----------------------------6.----3b------------|

                                                     
----------------------------------------------------|
--------------------------------5L----5-------------|
-----------5--7--5--7--5--7--5-----------7--5-------|
--0-------------------------------------------------|

                 P
----------------------------|
----------------------------|
-----------------8----------|
--0-------------------------|


----------------------------------------------------|
--------------------------------5L----5-------------|
-----------5--7--5--7--5--7--5-----------7--5--7----|
--0-------------------------------------------------|


----------------------------------------------------|
----------------------------------------------------|
-----------5--7--5--7--5--7.------------------------|
--0-----------------------------6.----3b------------|


----------------------------------------------------|
--------------------------------5L----5-------------|
-----------5--7--5--7--5--7--5--------------4--5----|
--0--------------------------------------0----------|


----------------------------------------------------|
----------------------------------------------------|
--7--7--7--7--7--7--7--7--7--7--7--7--7--7--7.------|
----------------------------------------------------|


----------------------------------------------------|
-----------------9----------------------------------|
-----------------------5L-5-----7-------------------|
--7-----------------7-------------------------------|


-----------------9----------------------------------|
----------------------------------------------------|
--7-----------------7--5L-5-----7-------------------|
----------------------------------------------------|


----------------------------------------------------|
-----------------9----------------------------------|
-----------------------5L-5-----7-------------------|
--7-----------------7-------------------------------|


----------------------------------------------------|
----------------------------------------------------|
----------------------------------------------------|
--3-----3-----3-----3-----3-----3--------3--3-------|


----------------------------------------------------|
-----------------9----------------------------------|
-----------------------5L-5-----7-------------------|
--7-----------------7-------------------------------|


-----------------9----------------------------------|
----------------------------------------------------|
--7-----------------7--5L-5-----7-------------------|
----------------------------------------------------|


----------------------------------------------------|
-----------------9----------------------------------| DA CODA
-----------------------5L-5-----7-------------------|
--7-----------------7-------------------------------|


----------------------------------------------------|
----------------------------------------------------|
----------------------------------------------------|
--3-----3-----3-----3-----3-----3--------3--3-------|


----------------------------------------------------|
--------------------------------5L----5-------------|
-----------5--7--5--7--5--7--5-----------7--5--7----|
--0-------------------------------------------------|


----------------------------------------------------|
----------------------------------------------------|
-----------5--7--5--7--5--7.------------------------|
--0-----------------------------6.----3b------------|


----------------------------------------------------|-------|----------|
--------------------------------5L----5-------------|-------|----------|
-----------5--7--5--7--5--7--5--------------4--5----|-------|----------|
--0--------------------------------------0----------|-------|----------|


-----------3--4-------------------------------------|
--5--3-----------5--3-----2--3----------------------|
--------5--------------5--------3--1L-1-----3--1----|
----------------------------------------------------|


----------------------------|
----------------------------|
--3--4--3--1--3--1----------|
--------------------3--1----|


----------------------------------------------------|
--------------------------------------------3-------|
-----------1L-1-----3L----3--4--------5-------------|
--3-------------------------------------------------|


--3-------------------------------------------------|
----------------------------------------------------|
-----------5L-5-----4L----4--3--------1-------------|
--------------------------------------------1-------|


----------------------------|
----------------------------| DS AL CODA
----------------------------|
--3-------------------------|

CODA
----------------------------------------------------|
----------------------------------------------------|
----------------------------------------------------|
--3-----3-----3-----3-----3-----3--------3--3.------|


----------------------------------------------------|
--------9.----9-------------------------------------|
-----------------------5L-5-----7-------------------|
--7--------------5--7-------------------------------|


----------------------------------------------------|
----------------------------------------------------|
--------7.----7.----7--5L-5-----7-------------------|
--0-------------------------------------------------|


----------------------------------------------------|
--------9.----9-------------------------------------|
-----------------------5L-5-----7-------------------|
--7--------------5--7-------------------------------|


----------------------------------------------------|
----------------------------------------------------|
----------------------------------------------------|
--3-----3-----3-----3-----3-----3-----3--3----------|


----------------------------------------------------|
--------9.----9-------------------------------------|
-----------------------5L-5-----7-------------------|
--7--------------5--7-------------------------------|


----------------------------------------------------|
----------------------------------------------------|
--------7.----7.----7--5L-5-----7-------------------|
--0-------------------------------------------------|


----------------------------------------------------|
--------9.----9-------------------------------------|
-----------------------5L-5-----7-------------------|
--7--------------5--7-------------------------------|


----------------------------------------------------|
----------------------------------------------------|
----------------------------------------------------|
--3-----3-----3--3--3-----3-----3-----3-----3-------|


----------------------------------------------------|
--------------------------------5L----5-------------|
-----------5--7--5--7--5--7--5-----------7--5--7----|
--0-------------------------------------------------|


----------------------------------------------------|
----------------------------------------------------|
-----------5--7--5--7--5--7.------------------------|
--0-----------------------------6.----3b------------|


----------------------------------------------------|
--------------------------------5L----5-------------|
-----------5--7--5--7--5--7--5-----------7--5--7----|
--0-------------------------------------------------|


----------------------------------------------------|
----------------------------------------------------|
--------------5-----------5-----------5-------------|
--0-----6--7-----7--5--6-----7--5--6-----6--3b------|


----------------------------------------------------|
--------------------------------5L----5-------------|
-----------5--7--5--7--5--7--5-----------7--5--7----|
--0-------------------------------------------------|


----------------------------------------------------|
--------------------------------------5-------------|
-----------5--7--5--7--5--7.------------------------|
--0-----------------------------6.------------------|


----------------------------------------------------|
--------------------------------5L----5-------------|
-----------5--7--5--7--5--7--5--------------4--5----|
--0--------------------------------------0----------|


----------------------------------------------------|
-----------5h-6-------------------------------------|
--7--5-----------7--5-----4--5----------------------|
--------7--------------7--------5--3L-3-----5--3----|


----------------------------|----------------------------||
----------------------------|----------------------------||
-----------------------5----|--7-------------------------||
--5--6--5--3--5--3--0-------|----------------------------||





Comments


Popular Red Hot Chili Peppers tabs & chords
Around The World 4 Bass Tabs
Dani Caifornia Bass Tabs
Cabron Right Way Tabs
Can't Stop 2 Tabs
Did I Let You Know 4 Tabs
Even You Brutus Intro Tabs
Factory Of Faith Tabs
Scar Tissue Outro Tabs
Someone Tabs
Bicycle Song Ukulele


Song lyrics



↑ Back to top | Tablatures and chords are parodies/interpretations of the original songs. You may use it for private study, scholarship, research or language learning purposes only
© 2014 AZChords.com Contact us | Privacy policy | DMCA | Add/correct tabs | Request tabs | Top 50 tabs