» » »

Good Time Boys Bass tabs (ver.2)

Artists:  A B C D E F G H I J K L M N O P Q R S T U V W X Y Z # 

Good Time Boys Bass tabs (ver.2)

Red Hot Chili Peppers
Rating:
0/5 (0 votes)

Hard to play? Try these video lessons and learn fast.
                "Good Time Boys"
The Red Hot Chili Peppers 

INTRO:
G-|-7-7---7-7---(19-times)------|
D-|-----------------------------|
A-|-----------------------------|
E-|-----------------------------|

RIFF 1:
G-|-------------------------------------|-------------------------------|
D-|-------------------------------------|-------------------------------|
A-|-----5/7/5/7-------------5-----------|------5/7/5/7------------------|
E-|-0--------------5--6--7-----7--5--3--|--0--------------6--5--3-------|

PRE-VERSE:
G-|-6--------6-------|
D-|----5--------5----|
A-|-------5----------|
E-|------------------|

VERSE: 
G-|----------------------------------------------------------------------------|
D-|---------------------------5------------------------------------------------|
A-|----5--7--5--7--5--7--5---------5--7-------5--7--5--7--5--7-----------------|
E-|0-----------------------------7--------0------------------------5--3--------|

PRE-CHORUS:
G-|------------------------------------|------------------------------------------|
D-|----------------5-------------7--7--|----------------------5-------------------|
A-|5--7-7--5--7---7-7--5--7------------|--5--7-7--5--7------7---5-----------------|
E-|------------------------------------|------------------------------7--6--5--3--|

CHORUS:
G-|---------------------------------|-------------------------------------------|
D-|---------------------------------|-------------------------------------------|
A-|---------5--7----7----7--5-------|---------5--7------------------------------|
E-|-7----7---------------------7----|-7----7----------3--3--3--3--3--3--3--3----|

INTERLUDE:

G-|---------3--4-------------------------------------------------------------------|
D-|5--3-----------5--3--0--2/3-----------------------------------------------------|
A-|------5--------------------------3--1----3--1--3/4--3--1--3--1------------------|
E-|-------------------------------------------------------------------3--1--3------|

G-|-------------------3------------------------|
D-|----------------3---------------------------|
A-|-1--3--4--5---------5--4--3----1------------|
E-|-------------------------------------1--3---|
            
Hard to play? Try these video lessons and learn fast. | Correct




comments powered by Disqus
↑ Back to top | Tablatures and chords are parodies/interpretations of the original songs. You may use it for private study, scholarship, research or language learning purposes only