» » »

Goodbye Hooray Bass tabs (ver.3)

Artists:  A B C D E F G H I J K L M N O P Q R S T U V W X Y Z # 

Goodbye Hooray Bass tabs (ver.3)

Red Hot Chili Peppers
Rating:
0/5 (0 votes)

Tabs too difficult? Try these video lessons and learn fast.
                |----------------------14 14 14-/17 17 17 17--------------------------------|
|---------------------------------------------------------------------------|
|---/12 12 12 12-----------------------------------17-19-19-19--15-17-17-17-|
|---------------------------------------------------------------------------|

|-----------------------------12--------------------------------------------|
|-------10----------10--12-14-----14-12-----12-10------------10-------------|
|-10-12-------10-12---------------------13--------12---10-12-----12-10-7-0--|
|---------------------------------------------------------------------------|

|---------------------------------------------------------------------------|
|---------------------------------------------------------------------------|
|-10-7-5-3-0---------------------5-0-0---------5-0-0------------------------|
|------------3---0h3h5----3-0-0---------3-0-0-------------------------------|

|---------------------------------------------------------------------------|
|-----------10------10/8\10-------------------------------------------------|
|-/12-10-12----12-----------12-10-12-10------12-----------------------------|
|---------------------------------------------------------------------------|

|x-14--17-17-17-17-17-17-17--0-16--16-16-16-16-16-16-12/14------------------|
|---------------------------------------------------------------------------|
|---------------------------------------------------------------------------|
|---------------------------------------------------------------------------|

|-19-19-17-17-16-16-12--14/16-----------------------------------------------|
|---------------------------------------------------------------------------|
|---------------------------------------------------------------------------|
|---------------------------------------------------------------------------|
            
Tabs too difficult? Try these video lessons and learn fast.




comments powered by Disqus
↑ Back to top | Tablatures and chords are parodies/interpretations of the original songs. You may use it for private study, scholarship, research or language learning purposes only