» » »

Red Hot Chili Peppers, Goodbye Hooray Bass tabs (ver.2)

Artists:  A B C D E F G H I J K L M N O P Q R S T U V W X Y Z # 

Goodbye Hooray Bass tabs (ver.2)

Red Hot Chili Peppers Tabs
Rating:
0/5 (0 votes)
Goodbye Hooray lessons Tabs too difficult? Try these video lessons and learn fast
                Red Hot Chili Peppers - Goodbye Hooray

Verse
       part 1
G|----------------|----------------|----------------|----------------|
D|----7-----------|----7-----------|----7-----------|----7-----------|
A|----------------|----------------|----------------|----------------|
E|5-------x-3-5-5-|--------x-3-5---|5-------x-3-5-5-|--------x-3-6~--|

G|----------------|----------------|----------------|----------------|
D|----7-----------|----7-----------|----------------|----------------|
A|----------------|----------------|----------------|----------------|
E|5-------x-3-5-5-|------x-3-5-----|x---5---x---5---|x---5---x---5---|

        part 2
G|----------------|----------------|----------------|----------------|
D|----------------|----------------|----------------|----------------|
A|----------------|----------------|----------------|----------------|
E|5-------------5-|5-----------5---|5-------------5-|5-----------6~--|

G|----------------|----------------|----------------|----------------|
D|----------------|----------------|----------------|----------------|
A|----------------|----------------|----------------|----------------|
E|5-------------5-|5-----------5---|----5-------5---|----5-------5---|

repeat part 1

Chorus (improvise in this sort of style)
G|----------------|-----------------|----------------|-----------5-----|
D|7-7-7-7-7-7-7-7-|7-7-9-7-9-10-9-7-|5-5-5-5-5-5-5-5-|5-5-5-5-/7---7-5-|
A|----------------|-----------------|----------------|-----------------|
E|----------------|-----------------|----------------|-----------------|

G|----------------|----------------|----------------|--7---7---7-----|
D|----------------|------------5-7-|----------------|------------7---|
A|7-7-7-7-7-7-7-7-|7-7-7-7-7-7-----|5-5-5-5-5-5-5-5-|5---5---5-----5-|
E|----------------|----------------|----------------|----------------|

G|----------------|------5-5/9-7-5---|----------------|------5-7-5-----|
D|7-7-7-7-7-7-7-7-|7-7-7-----------7-|5-5-5-5-5-5-5-5-|5-5-7-------7-5-|
A|----------------|------------------|----------------|----------------|
E|----------------|------------------|----------------|----------------|

G|----------------|----------------|----------------|----------------|
D|----------------|----------------|----------------|3-3-3-3-3-3-3-3-|
A|7-7-7-7-7-7-7-7-|7-7-7-7-7-108-7-|5-5-5-5-5-5-5-5-|----------------|
E|----------------|----------------|----------------|----------------|


Verse

part2
part1

Chorus (improvise)

then
G|----------------|----------------|
D|5-5-5-5-5-5-5-5-|5-5-5-5-5-5-5-5-|
A|----------------|----------------|
E|----------------|----------------|

Bass Solo

G|------------------15h17-1717-17-1717|----------------------------------|
D|17h19-1919-19-1919------------------|----------------------------------|
A|------------------------------------|17h19-191915h17-1717------15------|
E|------------------------------------|--------------------15h17---171717|

G|--------------10----------------------|-------------------|
D|-----1010h1212--101210------10--------|(7)-5--------------|
A|10h12------------------10h12--1210----|------7-5-3--------|
E|----------------------------------1210|------------5-3-5-3|

G|----------------|-----------------------------------|
D|----------------|-----------------------------------|
A|3---5---3---5---|--12-10-12/14-12-14-14/15-12-10/12~|
E|--55--55--55--53|5----------------------------------|

G|-------1717-17-17---------1616-16-16-16\|/19-19-17-17-16-16-14-12/16~-|
D|----------------------------------------|-----------------------------|
A|1212/15----------15-12/14---------------|-----------------------------|
E|----------------------------------------|-----------------------------|


Interlude

G|----------------|----------------|----------------|----------------|
D|----------------|----------------|----------------|----------------|
A|2-------------2-|2-----------2---|2-------------2-|2-----------2~--|
E|----------------|----------------|----------------|----------------|

G|----------------|----------------|----------------|----------------|x2
D|----------------|----------------|----------------|----------------|
A|4-------------4-|4-----------4---|4-------------4-|4-----------4~--|
E|----------------|----------------|----------------|----------------|

Chorus (improvise)
 
then (improvise)
G|----------------|----------------|----------------|----------------|
D|7-7-7-7-7-7-7-7-|7-7-7-7-7-7-7-7-|----------------|3-3-3-3-3-3-3-3-|
A|----------------|----------------|3-3-3-3-3-3-3-3-|----------------|
E|----------------|----------------|----------------|----------------|

G|----------------|----------------|----------------|----------------|
D|----------------|----------------|----------------|3-3-3-3-3-3-3-3-|
A|7-7-7-7-7-7-7-7-|7-7-7-7-7-7-7-7-|5-5-5-5-5-5-5-5-|----------------|
E|----------------|----------------|----------------|----------------|

G|----------------|----------------|
D|5-5-5-5-5-5-5-5-|5-5-5-5-5-5-5-5-|
A|----------------|----------------|
E|----------------|----------------|

Guitar Solo (verse part 1 x2)
            
Submit corrections

comments powered by Disqus
↑ Back to top | Red Hot Chili Peppers Bass for Goodbye Hooray. Lyrics for acoustic guitar and electric guitar. Tablatures and chords are parodies/interpretations of the original songs. You may use it for private study, scholarship, research or language learning purposes only