» » »

Goodbye Hooray Bass tabs (ver.1)

Artists:  A B C D E F G H I J K L M N O P Q R S T U V W X Y Z # 

Goodbye Hooray Bass tabs (ver.1)

Red Hot Chili Peppers
Rating:
0/5 (0 votes)

Hard to play? Try these video lessons and learn fast.
                -------------------------------------------------------------------------------
			     Goodbye Hooray - Red Hot Chili Peppers
-------------------------------------------------------------------------------


This song is off of RHCP's newest album I'm With You, and being what I
believe to be the toughest song on the album, I thought I would tab it out

It's tough to tell when Flea is playing a muted note, especially in the
intro so if there are some missing please let me know. Also let me know if
the fills are incorrect because they can be tough to hear in this song
anyways. If in doubt, play your own! :)

Intro:

G|--------------------------------------------------------|
D|----------7-----------7-----------7-----------7---------|
A|--------------------------------------------------------|
E|------x-5----x-3-5--5x---x-3-5--5----x-3-5--5----x-5-6--|
        S S P  S S S  SSP  S S S  S P  S S S  S P  S S S

G|----------------------------------------------|
D|----7-------------7---------------------------|
A|----------------------------------------------|
E|--5----x-3-5--5-xx--x-3-5--x5-xx5-xx5-xx5-xx--|
    S P  S S S  S SSP S S S  SS SSS SSS SSS SS

Verse:

G|------------------------------------------------------------|
D|------------------------------------------------------------|
A|------------------------------------------------------------|
E|-5---5-5---5--5---5-5---6-----5--5-5---5--x5--x5--x5--x5----|

G|-----------------------------------------------------|
D|------7------------7-----------7-----------7---------|
A|-----------------------------------------------------|
E|--x-5----x-3-5-x5-x---x-3-5-x5----x-3-5--5----x-5-6--|
    S S P  S S S SS P   S S S SS P  S S S  S P  S S S

G|------------------------------------------------|
D|------7-------------7---------------------------|
A|------------------------------------------------|
E|--x-5----x-3-5--5-xx--x-3-5--x5-xx5-xx5-xx5-xx--|
    S S P  S S S  S SSP S S S  SS SSS SSS SSS SS


Chorus:

G|----------------7---9-7----------------------------------------|
D|--777777777-7h9---9-----9----------------------8h10-8----------|
A|----------------------------10-1010-101010-10p8-------10-8h10--|
E|---------------------------------------------------------------|

G|---------------------------------------7--7--7---|
D|-----------7h10p7--------------------------------|
A|--7-77-777--------10-8-7-8--5-55-5555-5--5--5--5-|
E|-------------------------------------------------|


G|-----------------7h8p7-----------------------------------------|
D|--7-7-7777-7-7-10------10-7-------------------8h10h11p10p8h10--|
A|-----------------------------10-1010101010-10------------------|
E|---------------------------------------------------------------|

G|----------------------------------------------------|
D|----------------------------------------------------|
A|--7-77-77777777-10-9-8--5-55-55555-55555/8888888----|
E|----------------------------------------------------|


Verse 2:

G|-----------------------------------------------------------|
D|-----------------------------------------------------------|
A|-----------------------------------------------------------|
E|-5---5-5---5--5---5-5---6-----5--5-5---5--x5--x5--x5--x5---|

G|------------------------------------------------------|
D|------7------------7-----------7-----------7----------|
A|------------------------------------------------------|
E|----5----x-3-5-x5-x---x-3-5-x5----x-3-5--5----x-5-6---|
      S P  S S S SS P   S S S SS P  S S S  S P  S S S

G|-------------------------------------------------|
D|------7-------------7----------------------------|
A|-------------------------------------------------|
E|----5----x-3-5--5-xx--x-3-5--x5-xx5-xx5-xx5-xx---|
      S P  S S S  S SSP S S S  SS SSS SSS SSS SS


Chorus 2:

G|----------------7h8p7--------------------------------------------|
D|--777777777-9-7-------9-7-9----------------12h14p12--------------|
A|-----------------------------10-1010101010----------14-12-10-----|
E|-----------------------------------------------------------------|

G|--------------------------------------------------|
D|-----------------7---7--------------------55-66---|
A|--7-77-77777-7h9---9---9-7-5-55-5555-5-77---------|
E|--------------------------------------------------|


G|----------------12----12h14-12-------------------------------------------|
D|--7-77-7/-12h14----14---------14 12\---------9-10-12h14p12---------------|
A|--------------------------------------10-1010--------------15-14-12-10---|
E|-------------------------------------------------------------------------|

G|--------------------------------------------------------------------------[11's]------|
D|--------------------------------------------------------------------------------------|
A|--7-77-777777777777-7-5-55-555-5/8-888888-8/10-10-10-10-10-10-10-10/11-111111111111---|
E|--------------------------------------------------------------------------------------|


Solo!

G|--12h14-141414-141414/171717------------------------------------|
D|------------------------------1212h14--1010h12------------------|
A|------------------------------------------------1212h14h15-12---|
E|----------------------------------------------------------------|

G|--------------12----------------------------------------------------|
D|--------12h14----12---12--------------------------------------------|
A|--12-15-------------15---15-12141512-10-----10h12-10-7--------------|
E|----------------------------------------12-------------10-8-5-3-0---|

G|------------------------------------------------------------------|
D|-----------------------------------9-----9-9h10p9-----------------|
A|--3---5---3-----7----7-77/12-10-12---12~-----------12-10--12~-10--|
E|-0--00--00--000---00----------------------------------------------|

G|--------14/17-171717-12/16 161616-14-14/19-19-1717-1616-1414-16~--|
D|--xxx-x-----------------------------------------------------------|
A|------------------------------------------------------------------|
E|------------------------------------------------------------------|


Bridge:

G|------------------------------------------------------|
D|------------------------------------------------------|
A|---------------------------4---4-4---4--4---4-4---4---| x2
E|--7---7-7---7--7---7-7--7-----------------------------|


Final Chorus (note: I'm not tabbing out Flea's fills for this part since I
 want you to come up with your own fills instead :) )

G|-----------------------------------|
D|-7(x16)----------------------------|
A|---------10(x16)--7(x16)--5(x16)---|
E|-----------------------------------|

G|-------------------------------------------------------------------|
D|-7(x16)-------------------------------7(x16)--10(x8)---------------|
A|---------10(x16)--7(x16)--5(x8)/8(x8)----------------8(x8)-7(x16)--|
E|-------------------------------------------------------------------|

G|---------------------------------------------[11's]-----|
D|--------------------------------------------------------|
A|-5-55-555/8-88-888-8/10-1010-101010-10/11-1111-111111---|
E|--------------------------------------------------------|

Ending

G|----------------------------------------------------------| \
D|------7------------7-----------7-----------7----------|---|
A|------------------------------------------------------|---|
E|----5----x-3-5-x5-x---x-3-5-x5----x-3-5--5----x-5-6---|---|
      S P  S S S SS P   S S S SS P  S S S  S P  S S S     |
                                                          | x2
G|-------------------------------------------------|      |
D|------7-------------7----------------------------|      |
A|-------------------------------------------------|      |
E|----5----x-3-5--5-xx--x-3-5--x5-xx5-xx5-xx5[xx5]-|      |
      S P  S S S  S SSP S S S  SS SSS SSS SSS SSS         /

[xx5] -> First time only ^

| /  slide up
| \  slide down
| h  hammer-on
| p  pull-off
| ~  vibrato
| x  Mute note
===============================================================================
            
Hard to play? Try these video lessons and learn fast. | Correct




comments powered by Disqus
↑ Back to top | Tablatures and chords are parodies/interpretations of the original songs. You may use it for private study, scholarship, research or language learning purposes only