» » »

Red Hot Chili Peppers, Get Up And Jump Bass tabs (ver.6)

Artists:  A B C D E F G H I J K L M N O P Q R S T U V W X Y Z # 

Get Up And Jump Bass tabs (ver.6)

Red Hot Chili Peppers Tabs
Rating:
0/5 (0 votes)
Get Up And Jump lessons Tabs too difficult? Try these video lessons and learn fast
                

INTRO

G|---------------------------------|-------------6-6-6-6-------------|
D|-2-------------------------------|---------------------------------|
A|-----------------4-----------5---|---------------------------------|
E|-------0-2---3-------------------|---------------------------------|
   1 + + + 2 + + + 3 + + + 4 + + +   1 + + + 2 + + + 3 + + + 4 + + +

G|---------------------------------|-------------6-6-6-6-6-6-6-6-----|
D|-2-------------------------------|---------------------------------|
A|-----------------4-----------5-5-|---------------------------------|
E|-------0-2---3-------------------|---------------------------------|
   1 + + + 2 + + + 3 + + + 4 + + +   1 + + + 2 + + + 3 + + + 4 + + +

G|---------------------------------|-------------6-6-6-6-------------|
D|-2-------------------------------|---------------------------------|
A|-----------------4-----------5---|---------------------------------|
E|-------0-2---3-------------------|---------------------------------|
   1 + + + 2 + + + 3 + + + 4 + + +   1 + + + 2 + + + 3 + + + 4 + + +

G|---------------------------------|-------------6-6-6-6-6-6-6-6-----|
D|-2-------------------------------|---------------------------------|
A|-----------------4-----------5-5-|---------------------------------|
E|-------0-2---3-------------------|---------------------------------|
   1 + + + 2 + + + 3 + + + 4 + + +   1 + + + 2 + + + 3 + + + 4 + + +

G|-----------3-----------3---3h4---|-----------3-----------3---3h4---|
D|-----5-----------5---------------|-----5-----------5---------------|
A|---------------------------------|---------------------------------|
E|-3-X---X-X---X-X---X-X---X-----0-|-3-X---X-X---X-X---X-X---X-----0-|
   1 + + + 2 + + + 3 + + + 4 + + +   1 + + + 2 + + + 3 + + + 4 + + +
   T T P T T P T T P T T P T P   T   T T P T T P T T P T T P T P   T

G|-----------3-----------3---3h4---|-----------3-----------3---3h4---|
D|-----5-----------5---------------|-----5-----------5---------------|
A|---------------------------------|---------------------------------|
E|-3-X---X-X---X-X---X-X---X-----0-|-3-X---X-X---X-X---X-X---X-----0-|
   1 + + + 2 + + + 3 + + + 4 + + +   1 + + + 2 + + + 3 + + + 4 + + +
   T T P T T P T T P T T P T P   T   T T P T T P T T P T T P T P   T

VERSE 1 

G|---------------------------------|---------------------------------|
D|-----5-----3-----5-----3---3-----|-----5-----3-----5-----3---3h5---|
A|---------------------------------|---------------------------------|
E|-3-X---X-X---X-X---X-X---X-----0h|-3-X---X-X---X-X---X-X---X-----0h|
   1 + + + 2 + + + 3 + + + 4 + + +   1 + + + 2 + + + 3 + + + 4 + + +
   T T P T T P T T P T T P T P   T     T P T T P T T P T T P T P   T

G|---------------------------------|---------------------------------|
D|-----5-----3-----5-----3---3h5---|-----5-----3-----5-----3---3h5---|
A|---------------------------------|---------------------------------|
E|-3-X---X-X---X-X---X-X---X-----0h|-3-X---X-X---X-X---X-X---X-----0h|
   1 + + + 2 + + + 3 + + + 4 + + +   1 + + + 2 + + + 3 + + + 4 + + +
     T P T T P T T P T T P T P   T     T P T T P T T P T T P T P   T

G|-----------3---------------------|---------------------------------|
D|-----5-----------5-----3---3h5---|-----5-----3-----5-----3---3h5---|
A|---------------------------------|---------------------------------|
E|-3-X---X-X---X-X---X-X---X-----0h|-3-X---X-X---X-X---X-X---X-----0h|
   1 + + + 2 + + + 3 + + + 4 + + +   1 + + + 2 + + + 3 + + + 4 + + +
     T P T T P T T P T T P T P   T     T P T T P T T P T T P T P   T


INTERLUDE

G|-----------3-----------3---3h4---|-----------3-----------3---3h4---|
D|-----5-----------5---------------|-----5-----------5---------------|
A|---------------------------------|---------------------------------|
E|-3-X---X-X---X-X---X-X---X-----0h|-3-X---X-X---X-X---X-X---X-----0h|
   1 + + + 2 + + + 3 + + + 4 + + +   1 + + + 2 + + + 3 + + + 4 + + +
     T P T T P T T P T T P T P   T     T P T T P T T P T T P T P   T

VERSE 2


G|---------------------------------|---------------------------------|
D|-----5-----3-----5-----3---3h5---|-----5-----3-----5-----3---3h5---|
A|---------------------------------|---------------------------------|
E|-3-X---X-X---X-X---X-X---X-----0h|-3-X---X-X---X-X---X-X---X-----0h|
   1 + + + 2 + + + 3 + + + 4 + + +   1 + + + 2 + + + 3 + + + 4 + + +
     T P T T P T T P T T P T P   T     T P T T P T T P T T P T P   T

G|---------------------------------|---------------------------------|
D|-----5-----3-----5-----3---3h5---|-----5-----3-----5-----3---3h5---|
A|---------------------------------|---------------------------------|
E|-3-X---X-X---X-X---X-X---X-----0h|-3-X---X-X---X-X---X-X---X-----0h|
   1 + + + 2 + + + 3 + + + 4 + + +   1 + + + 2 + + + 3 + + + 4 + + +
     T P T T P T T P T T P T P   T     T P T T P T T P T T P T P   T

INTERLUDE

G|---------------------------------|---------------------------------|
D|-----5-----3-----5-----3---3h5---|-----5-----3-----2-----3-----3---|
A|---------------------------------|---------------------------------|
E|-3-X---X-X---X-X---X-X---X-----0h|-3-X---X-X---X-X---X-X---X-X---0h|
   1 + + + 2 + + + 3 + + + 4 + + +   1 + + + 2 + + + 3 + + + 4 + + +
     T P T T P T T P T T P T P   T     T P T T P T T P T T P T T P T

VERSE 3

G|---------------------------------|---------------------------------|
D|-----5-----3-----5-----3---3h5---|-----5-----3-----5-----3---3h5---|
A|---------------------------------|---------------------------------|
E|-3-X---X-X---X-X---X-X---X-----0h|-3-X---X-X---X-X---X-X---X-----0h|
   1 + + + 2 + + + 3 + + + 4 + + +   1 + + + 2 + + + 3 + + + 4 + + +
     T P T T P T T P T T P T P   T     T P T T P T T P T T P T P   T

G|---------------------------------|---------------------------------|
D|-----5-----3-----5-----3---3h5---|-----5-----3-----5-----3---3h5---|
A|---------------------------------|---------------------------------|
E|-3-X---X-X---X-X---X-X---X-----0h|-3-X---X-X---X-X---X-X---X-----0h|
   1 + + + 2 + + + 3 + + + 4 + + +   1 + + + 2 + + + 3 + + + 4 + + +
     T P T T P T T P T T P T P   T     T P T T P T T P T T P T P   T

INTERLUDE

G|-----------3-----------3---3h4---|-----------3-----------3---3h4---|
D|-----5-----------5---------------|-----5-----------5---------------|
A|---------------------------------|---------------------------------|
E|-3-X---X-X---X-X---X-X---X-----0h|-3-X---X-X---X-X---X-X---X-----0h|
   1 + + + 2 + + + 3 + + + 4 + + +   1 + + + 2 + + + 3 + + + 4 + + +
     T P T T P T T P T T P T P   T     T P T T P T T P T T P T P   T

VERSE 4

G|---------------------------------|---------------------------------|
D|-----5-----3-----5-----3---3h5---|-----5-----3-----5-----3---3h5---|
A|---------------------------------|---------------------------------|
E|-3-X---X-X---X-X---X-X---X-----0h|-3-X---X-X---X-X---X-X---X-----0h|
   1 + + + 2 + + + 3 + + + 4 + + +   1 + + + 2 + + + 3 + + + 4 + + +
     T P T T P T T P T T P T P   T     T P T T P T T P T T P T P   T

G|---------------------------------|
D|-----5-----3-----5-----3---3h5---|
A|---------------------------------|
E|-3-X---X-X---X-X---X-X---X-----0-|
   1 + + + 2 + + + 3 + + + 4 + + +  
     T P T T P T T P T T P T P   T

CHORUS

G|---------------------------------|---------------------------------|
D|---------5-5-5-5-----------------|---------5-5-5-5-----------------|
A|---------------------------------|---------------------------------|
E|-5-------------------------------|-5-------------------------------|
   1 + + + 2 + + + 3 + + + 4 + + +   1 + + + 2 + + + 3 + + + 4 + + +

G|---------------------------------|-------------------7---7\5---5---|
D|---------5-5-5-5-----------------|---------5-5-5-5-----------------|
A|---------------------------------|---------------------------------|
E|-5-------------------------------|-5-------------------------------|
   1 + + + 2 + + + 3 + + + 4 + + +   1 + + + 2 + + + 3 + + + 4 + + +
                                                       P   P     P

G|---------------------------------|---------------------------------|
D|---------5-5-5-5-----------------|---------5-5-5-5-----------------|
A|---------------------------------|---------------------------------|
E|-5-------------------------------|-5-------------------------------|
   1 + + + 2 + + + 3 + + + 4 + + +   1 + + + 2 + + + 3 + + + 4 + + +

G|---------------------------------|---------------------------------|
D|---------5-5-5-5-----------------|---------5-5-5-5-----------------|
A|---------------------------------|---------------------------------|
E|-5-------------------------------|-5-------------------------------|
   1 + + + 2 + + + 3 + + + 4 + + +   1 + + + 2 + + + 3 + + + 4 + + +
                                                               

INTERLUDE

G|-----------3-----------3---3h4---|-----------3-----------3---3h4---|
D|-----5-----------5---------------|-----5-----------5---------------|
A|---------------------------------|---------------------------------|
E|-3-X---X-X---X-X---X-X---X-----0h|-3-X---X-X---X-X---X-X---X-----0h|
   1 + + + 2 + + + 3 + + + 4 + + +   1 + + + 2 + + + 3 + + + 4 + + +
   T T P T T P T T P T T P T P   T     T P T T P T T P T T P T P   T

G|-----------3-----------3---3h4---|-----------3-----------3---3h4---|
D|-----5-----------5---------------|-----5-----------5---------------|
A|---------------------------------|---------------------------------|
E|-3-X---X-X---X-X---X-X---X-----0h|-3-X---X-X---X-X---X-X---X-----0h|
   1 + + + 2 + + + 3 + + + 4 + + +   1 + + + 2 + + + 3 + + + 4 + + +
     T P T T P T T P T T P T P   T     T P T T P T T P T T P T P   T

VERSE 5

G|---------------------------------|---------------------------------|
D|-----5-----3-----5-----3---3h5---|-----5-----3-----5-----3---3h5---|
A|---------------------------------|---------------------------------|
E|-3-X---X-X---X-X---X-X---X-----0h|-3-X---X-X---X-X---X-X---X-----0h|
   1 + + + 2 + + + 3 + + + 4 + + +   1 + + + 2 + + + 3 + + + 4 + + +
     T P T T P T T P T T P T P   T     T P T T P T T P T T P T P   T

G|---------------------------------|---------------------------------|
D|-----5-----3-----5-----3---3h5---|-----5-----3-----5-----3---3h5---|
A|---------------------------------|---------------------------------|
E|-3-X---X-X---X-X---X-X---X-----0h|-3-X---X-X---X-X---X-X---X-----0h|
   1 + + + 2 + + + 3 + + + 4 + + +   1 + + + 2 + + + 3 + + + 4 + + +
     T P T T P T T P T T P T P   T     T P T T P T T P T T P T P   T

INTERLUDE

G|---------------------------------|---------------------------------|
D|-----5-----3-----5-----3---3h5---|-----5-----3-----5-----3---3h5---|
A|---------------------------------|---------------------------------|
E|-3-X---X-X---X-X---X-X---X-----0h|-3-X---X-X---X-X---X-X---X-----0h|
   1 + + + 2 + + + 3 + + + 4 + + +   1 + + + 2 + + + 3 + + + 4 + + +
     T P T T P T T P T T P T P   T     T P T T P T T P T T P T P   T

VERSE 6

G|---------------------------------|---------------------------------|
D|-----5-----3-----5-----3---3h5---|-----5-----3-----5-----3---3h5---|
A|---------------------------------|---------------------------------|
E|-3-X---X-X---X-X---X-X---X-----0h|-3-X---X-X---X-X---X-X---X-----0h|
   1 + + + 2 + + + 3 + + + 4 + + +   1 + + + 2 + + + 3 + + + 4 + + +
     T P T T P T T P T T P T P   T     T P T T P T T P T T P T P   T

G|---------------------------------|---------------------------------|
D|-----5-----3-----5-----3---3h5---|-----5-----3-----5-----3---3h5---|
A|---------------------------------|---------------------------------|
E|-3-X---X-X---X-X---X-X---X-----0h|-3-X---X-X---X-X---X-X---X-----0h|
   1 + + + 2 + + + 3 + + + 4 + + +   1 + + + 2 + + + 3 + + + 4 + + +
     T P T T P T T P T T P T P   T     T P T T P T T P T T P T P   T

INTERLUDE

G|-----------3-----------3---3h4---|-----------3-----------3---3h4---|
D|-----5-----------5---------------|-----5-----------5---------------|
A|---------------------------------|---------------------------------|
E|-3-X---X-X---X-X---X-X---X-----0h|-3-X---X-X---X-X---X-X---X-----0h|
   1 + + + 2 + + + 3 + + + 4 + + +   1 + + + 2 + + + 3 + + + 4 + + +
     T P T T P T T P T T P T P   T     T P T T P T T P T T P T P   T

VERSE 7

G|---------------------------------|---------------------------------|
D|-----5-----3-----5-----3---3h5---|-----5-----3-----5-----3---3h5---|
A|---------------------------------|---------------------------------|
E|-3-X---X-X---X-X---X-X---X-----0h|-3-X---X-X---X-X---X-X---X-----0h|
   1 + + + 2 + + + 3 + + + 4 + + +   1 + + + 2 + + + 3 + + + 4 + + +
     T P T T P T T P T T P T P   T     T P T T P T T P T T P T P   T

G|---------------------------------|---------------------------3h4---|
D|-----5-----3-----5-----3---3h5---|-----5-----3-----5-----3---------|
A|---------------------------------|---------------------------------|
E|-3-X---X-X---X-X---X-X---X-----0h|-3-X---X-X---X-X---X-X---X-------|
   1 + + + 2 + + + 3 + + + 4 + + +   1 + + + 2 + + + 3 + + + 4 + + +
     T P T T P T T P T T P T P   T     T P T T P T T P T T P T P    

CHORUS

G|---------------------------------|---------------------------------|
D|---------5-5-5-5-----------------|---------5-5-5-5-----------------|
A|---------------------------------|---------------------------------|
E|-5-------------------------------|-5-------------------------------|
   1 + + + 2 + + + 3 + + + 4 + + +   1 + + + 2 + + + 3 + + + 4 + + +

G|---------------------------------|-------------------7---7\5---5---|
D|---------5-5-5-5-----------------|---------5-5-5-5-----------------|
A|---------------------------------|---------------------------------|
E|-5-------------------------------|-5-------------------------------|
   1 + + + 2 + + + 3 + + + 4 + + +   1 + + + 2 + + + 3 + + + 4 + + +
                                                       P   P     P

G|---------------------------------|---------------------------------|
D|---------5-5-5-5-----------------|---------5-5-5-5-----------------|
A|---------------------------------|---------------------------------|
E|-5-------------------------------|-5-------------------------------|
   1 + + + 2 + + + 3 + + + 4 + + +   1 + + + 2 + + + 3 + + + 4 + + +

G|---------------------------------|---------------------------------|
D|---------5-5-5-5-----------------|---------5-5-5-5-----------------|
A|---------------------------------|---------------------------------|
E|-5-------------------------------|-5-------------------------------|
   1 + + + 2 + + + 3 + + + 4 + + +   1 + + + 2 + + + 3 + + + 4 + + +

G|---------------------------------|---------------------------------|
D|---------5-5-5-5-----------------|---------5-5-5-5-----------------|
A|---------------------------------|---------------------------------|
E|-5-----------------0-2---3---4---|-5-----------------0-2---3---4---|
   1 + + + 2 + + + 3 + + + 4 + + +   1 + + + 2 + + + 3 + + + 4 + + +

G|---------------------------------|---------------------------------|
D|---------5-5-5-5-----------------|---------5-5-5-5-----------------|
A|---------------------------------|---------------------------------|
E|-5-----------------0-2---3---4---|-5-----------------0-2---3---4---|
   1 + + + 2 + + + 3 + + + 4 + + +   1 + + + 2 + + + 3 + + + 4 + + +

G|---------------------------------|---------------------------------|
D|---------5-5-5-5-----------------|---------5-5-5-5-----------------|
A|---------------------------------|---------------------------------|
E|-5-----------------0-2---3---4---|-5-----------------0-2---3---4---|
   1 + + + 2 + + + 3 + + + 4 + + +   1 + + + 2 + + + 3 + + + 4 + + +

G|---------------------------------|---------------------------------|
D|---------5-5-5-5-----------------|---------5-5-5-5-----------------|
A|---------------------------------|---------------------------------|
E|-5-----------------0-2---3---4---|-5-----------------------5\------|
   1 + + + 2 + + + 3 + + + 4 + + +   1 + + + 2 + + + 3 + + + 4 + + +

INTERLUDE

G|-----------3-----------3---3h4---|-----------3-----------3---3h4---|
D|-----5-----------5---------------|-----5-----------5---------------|
A|---------------------------------|---------------------------------|
E|-3-X---X-X---X-X---X-X---X-----0h|-3-X---X-X---X-X---X-X---X-----0h|
   1 + + + 2 + + + 3 + + + 4 + + +   1 + + + 2 + + + 3 + + + 4 + + +
   T T P T T P T T P T T P T P   T     T P T T P T T P T T P T P   T

G|-----------3-----------3---3h4---|---------------------------------|
D|-----5-----------5---------------|-----5-----3-----5-----3---2h3---|
A|---------------------------------|---------------------------------|
E|-3-X---X-X---X-X---X-X---X-----0h|-3-X---X-X---X-X---X-X---X-----0h|
   1 + + + 2 + + + 3 + + + 4 + + +   1 + + + 2 + + + 3 + + + 4 + + +
     T P T T P T T P T T P T P   T     T P T T P T T P T T P T P   T

VERSE 8

G|---------------------------------|---------------------------------|
D|-----5-----3-----5-----3---3h5---|-----5-----3-----5-----3---3h5---|
A|---------------------------------|---------------------------------|
E|-3-X---X-X---X-X---X-X---X-----0h|-3-X---X-X---X-X---X-X---X-----0h|
   1 + + + 2 + + + 3 + + + 4 + + +   1 + + + 2 + + + 3 + + + 4 + + +
     T P T T P T T P T T P T P   T     T P T T P T T P T T P T P   T

G|---------------------------------|---------------------------------|
D|-----5-----3-----5-----3---3h5---|-----5-----3-----5-----3---3h5---|
A|---------------------------------|---------------------------------|
E|-3-X---X-X---X-X---X-X---X-----0h|-3-X---X-X---X-X---X-X---X-----0-|
   1 + + + 2 + + + 3 + + + 4 + + +   1 + + + 2 + + + 3 + + + 4 + + +
     T P T T P T T P T T P T P   T     T P T T P T T P T T P T P   T

OUTRO

G|---------------------------------|-------------6-6-6-6-------------|
D|-2-------------------------------|---------------------------------|
A|-----------------4-----------5---|---------------------------------|
E|-------0-2---3-------------------|---------------------------------|
   1 + + + 2 + + + 3 + + + 4 + + +   1 + + + 2 + + + 3 + + + 4 + + +

G|---------------------------------|-------------6-6-6-6-6-6-6-6-----|
D|-2-------------------------------|---------------------------------|
A|-----------------4-----------5-5-|---------------------------------|
E|-------0-2---3-------------------|---------------------------------|
   1 + + + 2 + + + 3 + + + 4 + + +   1 + + + 2 + + + 3 + + + 4 + + +
            

comments powered by Disqus
↑ Back to top | Red Hot Chili Peppers Bass for Get Up And Jump. Lyrics for acoustic guitar and electric guitar. Tablatures and chords are parodies/interpretations of the original songs. You may use it for private study, scholarship, research or language learning purposes only