>
 >
Funky Monks 3

Funky Monks 3 Bass Tabs

Red Hot Chili Peppers - Funky Monks 3 chords, tabs, tablatures, lyrics

Guitar lessons | Add/correct | Request | Top 50 tabs Artists:  A B C D E F G H I J K L M N O P Q R S T U V W X Y Z 0-9

Funky Monks 3 Bass Tabs – Red Hot Chili Peppers

CD, Sheet music, Poster

Do you like Funky Monks 3? Share with your friends now
Bass TabsBass Tabs v2Bass Tabs v3ChordsTabsTabs v2Tabs v3Tabs v4Ukulele
funky monks - red hot chili peppers

an adaption for the 4 string bassists among us! :)
you have to de-tune BUT don't be put off! funky monks has an awsome bass line (if you 
it right!) if this is crap... err don't be mean anyhoo enjoy

verse 1

G ----------------  ----------------|
D ----------------  ----------------|
A ----------------  ----------------|
B --8--8-8-x-8----  --8--8-8-x-8----|  x5

G ----------------  -----------------------|
D ----------------  -----------------------|
A ----------------  -----------------------|
B --8--8-8-x-8----  --8--8-x-8-11-8-11-8-6-|

G ----------------  ----------------|
D ----------------  ----------------|
A ----------------  ----------------|
B --8--8-8-x-8----  --8--8-8-x-8----|  x3

G ----------------  -------------|
D ----------------  -------------|
A ----------------  -------------|
B --8--8-8-x-8----  --88-66-321--|

chorus 1

G ------------------------  --------------|
D ------------------------  --------------|
A ------------------------  --------------|
B --10-10--8-8--6-6--5x6--  --666-55-331--|

G ------------------------  ---------------|
D ------------------------  ---------------|
A ------------------------  ---------33-22-|
B --10-10--8-8--6-6--5x6--  --666-55-------|

G ------------------------  -------------|
D ------------------------  -------------|
A ------------------------  -------------|
B --10-10--8-8--6-6--5x6--  --66-55-331--|

G ---------------------  -----------------------------|
D ---------------------  -----------------------------|
A ---------------------  -5-3----5/6--5-3-5-3---------|
B --10-10--8-8--6-6--5-  -----10--------------10-8-10-|

verse 2

G ----------------|
D ----------------|
A ----------------|
B --8--8-8-x-8----|  x3

G ----------------------|
D ----------------------|
A ----------------------|
B --8-8-x-8-13-8-11-8-6-|

G ----------------|
D ----------------|
A ----------------|
B --8--8-8-x-8----|  x3

G ------------------------|
D ------------------------|
A ------------------------|
B --8--x-8-8--11-11-10-10-|

G ----------------|
D ----------------|
A ----------------|
B --8--8-8-x-8----|  x3

G ----------------------|
D ----------------------|
A ----------------------|
B --8-8-x-8-13-8-11-8-6-|

G ----------------|
D ----------------|
A ----------------|
B --8--8-8-x-8----|  x3

G --------------|
D --------------|
A --------------|
B --88-66--321--|

chorus 2

G ------------------------  --------------|
D ------------------------  --------------|
A ------------------------  --------------|
B --10-10--8-8--6-6--5x6--  --666-55-331--|

G ------------------------  ---------------|
D ------------------------  ---------------|
A ------------------------  ---------33-22-|
B --10-10--8-8--6-6--5x6--  --666-55-------|

G ------------------------  --------------|
D ------------------------  --------------|
A ------------------------  --------------|
B --10-10--8-8--6-6--5x6--  --666-55-331--|

G ---------------------  -----------------------------|
D ---------------------  -----------------------------|
A ---------------------  -5-3----5/6--5-3-5-3---------|
B --10-10--8-8--6-6--5-  -----10--------------10-8-10-|

guitar solo

G -----------------------------  ----------------------------|
D -----------------------------  ----------------------------|
A -------11--10-12-------12-11-  -------11--10-12--5-8--7-5--|
B --10h12----------10-12-------  --10h12---------------------|

G -----------------------------  ------------------------------|
D -----------------------------  ------------------------------|
A -------11--10-12-------12-11-  -------11--10-12--7h8p7-5-8-7-|
B --10h12----------10-12-------  --10h12-----------------------|

G -----------------------------  ----------------------------|
D -----------------------------  ----------------------------|
A -------11--10-12-------12-11-  -------11--10-12--5-8--7-5--|
B --10h12----------10-12-------  --10h12---------------------|

G -----------------------------  ----------------------------|
D -----------------------------  ----------------------------|
A -------11--10-12-------12-11-  -------11--10-12--5-8--7-5--|
B --10h12----------10-12-------  --10h12---------------------|

G --------------------  ----------------------|
D --------------------  ----------------------|
A -----2--1-3-----3-2-  -----2--1-3--1-4--3-1-|
B --1h3-------1-3-----  --1h3-----------------|

G --------------------  ------------------------|
D --------------------  ------------------------|
A -----2--1-3-----3-2-  -----2--1-3--1-4--3-1-3-|
B --1h3-------1-3-----  --1h3-------------------|

G --------------------  --------------------------|
D --------------------  --------------0-----------|
A -----2--1-3-----3-2-  -----2--1-3-0---3-1-0-4-3-|
B --1h3-------1-3-----  --1h3---------------------|

G --------------------  ----------------------|
D --------------------  ----------------------|
A -----2--1-3-----3-2-  -----2--1-3--1-4--3-1-|
B --1h3-------1-3-----  --1h3-----------------|


verse 3

G ----------------|
D ----------------|
A ----------------|
B --8--8-8-x-8----|  x3

G ---------------|
D ---------------|
A ---------------|
B --8--8-8-x-866-|

G ----------------|
D ----------------|
A ----------------|
B --8--8-8-x-8----|  x2

G ---------------  --------------------|
D ---------------  --------------------|
A ---------------  -------3/4\3--3/5\3-|
B --8--8-8-x-866-  --8-8---------------|

G ----------------|
D ----------------|
A ----------------|
B --8--8-8-x-8----|  x6

G ----------------  ------------|
D ----------------  ------------|
A ----------------  ------------|
B --8--8-8-x-8----  -88-66-321--|

chorus 3

G ------------------------  --------------|
D ------------------------  --------------|
A ------------------------  --------------|
B --10-10--8-8--6-6--5x6--  --666-55-331--|

G ------------------------  ---------------|
D ------------------------  ---------------|
A ------------------------  ---------33-22-|
B --10-10--8-8--6-6--5x6--  --666-55-------|

G ------------------------  --------------|
D ------------------------  --------------|
A ------------------------  --------------|
B --10-10--8-8--6-6--5x6--  --666-55-331--|

G ---------------------  -----------------------------|
D ---------------------  -----------------------------|
A ---------------------  -5-3----5/6--5-3-5-3---------|
B --10-10--8-8--6-6--5-  -----10--------------10-8-10-|

outro

G -1h2---------------x4---2---1-  -2-----------------4---2---|
D ----0-2--2--4-----------------  ---2---3---4---------------|
A ----------------2-------------  --------------0h2----------|
B ------------------------------  ---------------------------| x2

G -1h2--------------------4---2---1-  ---2---------------x4---2---|
D ----0-2-0-3-0-4-------------------  -----2---3---4--------------|
A ----------------0-2-0-2-----------  ----------------2-----------|
B ----------------------------------  ----------------------------|

G -1h2-----------------x4---2---1-  --2----------------------x4---2---1-|
D -----0-2---3---4----------------  ----2h3h4-2h3h4-2h3h4---------------|
A ------------------2-------------  -----------------------2------------|
B --------------------------------  ------------------------------------|

G -1h2-----------------x4---x7-8--  --4-------2------2---2-1---2--|
D -----0-2---3---4----------------  ------3------------4----------|
A ------------------2-------------  -------------0-2--------------|
B --------------------------------  ------------------------------|

G -1h2------------------------x4---2---1-  -1-2-----------------4---2--|
D -----0-2h3h4-2h3h4-2h3h4---------------  -----2---3---4--------------|
A -------------------------2-------------  ---------------0h2----------|
B ---------------------------------------  ----------------------------|

G --1-2-------2---x2---  -2--4-----------  -1-2------2---x2---  -7--4--|
D ---------------------  ----------------  -------------------  -------|
A ---------------------  ----------------  -------------------  -------|
B ---------------------  ----------------  -------------------  -------|

G -1h2--------------------x4----2----1-  ---2--------------------4---2-|
D -----0-2---2---4---------------------  -----2-----3----4-------------|
A -------------------2-----------------  ------------------0h2---------|
B -------------------------------------  ------------------------------|

G -1h2--------------------x4----2----1--  ---2------------------4---2--|
D -----0-2---2---4----------------------  -----2----3---4--------------|
A --------------------2-----------------  ----------------0h2----------|
B --------------------------------------  -----------------------------|

G -1h2--------------------4---2---1-  ---2---------------x4---2---1-|
D ----0-2-0-3-0-4-------------------  -----2---3---4----------------|
A ----------------0-2-0-2-----------  ----------------2-------------|
B ----------------------------------  ------------------------------|
                                                    fades out.....!





Comments


Popular Red Hot Chili Peppers tabs & chords
All Around The World Bass Tabs
Body Of Water Bass Tabs
Californication Bass Tabs
Fortune Faded 4 Bass Tabs
Instrumental #2 Bass Tabs
Nevermind 2 Bass Tabs
True Men Don't Kill Coyotes 1 Bass Tabs
Porcelain 1 Tabs
Rhcp Blood Sugar Tabs
Search And Destroy 1 Tabs


Song lyrics



↑ Back to top | Tablatures and chords are parodies/interpretations of the original songs. You may use it for private study, scholarship, research or language learning purposes only
© 2014 AZChords.com Contact us | Privacy policy | DMCA | Add/correct tabs | Request tabs | Top 50 tabs