>
 >
Funky Monks

Funky Monks Bass Tabs

Red Hot Chili Peppers - Funky Monks chords, tabs, tablatures, lyrics

Guitar lessons | Add/correct | Request | Top 50 tabs Artists:  A B C D E F G H I J K L M N O P Q R S T U V W X Y Z 0-9

Funky Monks Bass Tabs – Red Hot Chili Peppers

CD, Sheet music, Poster

Do you like Funky Monks? Share with your friends now
Bass TabsBass Tabs v2Bass Tabs v3ChordsTabsTabs v2Tabs v3Tabs v4Ukulele
----------------------------------------------------------------------------
			Funky monks-Red hot chili peppers
----------------------------------------------------------------------------

Havent played this for a while so cant really remember all of it, the other
tab is good but ill correct the other bits

Tuning: Standard played on a 5 string
Repeat with variations   fill to chorus
G|----------------]---------------------------------------------------------|
D|----------------]---------------------------------------------------------|
A|----------------]---------------------------------------------------------|
E|--3--3--3--3x3--]--------1-1-0-0------------------------------------------|
B!----------------]----------------3-3-1-1----------------------------------|

chorus, with variations
G|----------------------------------------]---------------------------------|
D|----------------------------------------]---------------------------------|
A|----------------------------------------]--3-3-1-1------------------------|
E|--5-5-3-3-1-1-0-x-3333-1111-------------]---------------------------------|
B!-----------------------------3-3-1-1----]---------------------------------|

Solo riff
G|-----1-0-2-----2-1-----1-0-2-------------1-0-2-----2-1-----1-0-2------------|
D|-----------------------------0-3-2-0-----------------------------2h3p2p0-32-|
A|-0h2-------0-2-----0h2---------------0h2-------0-2-----0h2------------------|
E|----------------------------------------------------------------------------|
B!----------------------------------------------------------------------------|

G|-----1-0-2-----2-1-----1-0-2------------------------------------------------|
D|-----------------------------0-3-2-0----------------------------------------|
A|-0h2-------0-2-----0h2-------------------2-1-3-----3-2-----2-1-3------------|
E|-----------------------------------------------------------------1-4-3-1----|
B!-------------------------------------1h3-------1-3-----1h3------------------|

G|---------------------------------------------------------------------------|
D|---------------------------------------------------------------------------|
A|-----2-1-3-----3-2-----2-1-3-----------------2-1-3-----3-2-----2-1-3-------|
E|-----------------------------3h4p3p1-4-3-----------------------------1-4-3-1
B!-1h3-------1-3-----1h3-------------------1h3-------1-3-----1h3-------------
back to verse

Outro
G!--1h2-------------4-2-1-2---------------4-2-1h2-------------4-2-1-2-------|
D|------0-2-3-4--------------2-3-4----------------0-2-3-4-------------------|
A|--------------2-x-----------------0h2-x-----------------2-x---------------|
E|--------------------------------------------------------------------------|
B!--------------------------------------------------------------------------|

G|----------------4-2-1h2-----------------------4-2-1-2---------------------|
D|----2-3-4---------------0-2-0-3-0-4--------------------2-3-4--------------|
A|----------0h2-x---------------------0h2-0h2-x-----------------0h2-x-------|
E|--------------------------------------------------------------------------|
B!--------------------------------------------------------------------------|

G--4-2-1h2--------------4-2-1-2------------------------------|
D----------0-2-3-4-------------2h3h4-2h3h4-2h3h4-------------|
A------------------2-x---------------------------0h2-x-------|
E------------------------------------------------------------|
B------------------------------------------------------------|

G|-4-2-1h2-------------4-x-7-8--4-1h2-4------2---2-1-2-------|
D|---------0-2-3-4-----------------------------4-------------|
A!-----------------2x-------------------0h2x-----------------|
E|-----------------------------------------------------------|
B!-----------------------------------------------------------|

G---1h2------------------------4-2-1-2-----------------------|
D--------0-2h3h4-2h3h4-2h3h4-----------0-2-3-4---------------|
A----------------------------------------------0h2x----------|
E------------------------------------------------------------|
B------------------------------------------------------------|

G-4-2--1--2--x2-x2---2-4----1-2---4x4--/7-4-----------------|
D-----------------------------------------------------------|
A-----------------------------------------------------------|
E-------------------------------------------------15\-------|
B-----------------------------------------------------------|
Back to start of outro as it fades out

If this helped please rate, cos ive got a few songs on here
plenty of views but not one has been rated

| /  slide up
| \  slide down
| h  hammer-on
| p  pull-off
| ~  vibrato
| +  harmonic
| x  Mute note
===============================================================================





Comments


Popular Red Hot Chili Peppers tabs & chords
Areoplane Bass Tabs
Buckle Down Bass Tabs
Me & My Friends 1 Bass Tabs
I Could Die For You Chords
Cabron Right Way Tabs
Coffee Shop 2 Tabs
Dani California 6 Tabs
Me And My Friends Tabs
The Power Of Equality Tabs
Warped 1 Tabs


Song lyrics



↑ Back to top | Tablatures and chords are parodies/interpretations of the original songs. You may use it for private study, scholarship, research or language learning purposes only
© 2014 AZChords.com Contact us | Privacy policy | DMCA | Add/correct tabs | Request tabs | Top 50 tabs