» » »

Red Hot Chili Peppers, Fortune Faded Bass tabs (ver.2)

Artists:  A B C D E F G H I J K L M N O P Q R S T U V W X Y Z # 

Fortune Faded Bass tabs (ver.2)

Red Hot Chili Peppers Tabs
 Rating:
4/5 (4 votes)
Fortune Faded lessons Tabs too difficult? Try these video lessons and learn fast
                -------------------------------------------------------------------------------
			     Fortune Faded – Red Hot Chili Peppers
-------------------------------------------------------------------------------


Tuning: standard

All the other tabs are cr*p on here in my view so  I done it out myself here. As far as
can tell it is right

Intro

G|--------------------------------------------------------------|
D|-----------44444444444--11111111111111111-—161616161616161616-|
A|--------------------------------------------------------------|
E|--22222222----------------------------------------------------|


Verse x8
G|--------------------------------------------------------|
D|--------------------------------------------------------|
A|--22-xxxx-22-xxxx-22-xxxx-22-5x5x5x5x5------------------|
E|---------------------------------------5555--5555--3333-|


Chorus

G|------------------------------------------------|
D|---------9-7-5—5555/--9-999-9--5----------------|
A|--7—77----------------------------7—5---7--5----|
E|----------------------------------------------7-|

G|------------------------------------|
D|---------9-7-5—5555/--9-999-999-999-|
A|--7—77-----------------------------—|
E|------------------------------------|


Verse x4 I think
G|--------------------------------------------------------|
D|--------------------------------------------------------|
A|--22-xxxx-22-xxxx-22-xxxx-22-5x5x5x5x5------------------|
E|---------------------------------------5555--5555--3333-|

Chorus

G|------------------------------------------------|
D|---------9-7-5—5555/--9-999-9--5----------------|
A|--7—77----------------------------7—5---7--5----|
E|----------------------------------------------7-|

G|------------------------------------|
D|---------9-7-5—5555/--9-999-999-999-|
A|--7—77-----------------------------—|
E|------------------------------------|

Solo

G|--------------------------------------------------------|
D|--------------------------------------------------------|
A|--22-xxxx-22-xxxx-22-xxxx-22-5x5x5x5x5------------------|
E|---------------------------------------5555--5555--3333-|

G|--------------------------------------------------------|
D|--------------------------------------------------------|
A|--22-xxxx-25-xxxx-22-xxxx-20-5x5x5x5x5------------------|
E|---------------------------------------5555--5555--3333-|

Bridge

G|--------------------------------------------------------------|
D|-----------44444444444--11111111111111111-—161616161616161616-|
A|--------------------------------------------------------------|
E|--22222222----------------------------------------------------|

Chorus

G|------------------------------------------------|
D|---------9-7-5—5555/--9-999-9--5----------------|
A|--7—77----------------------------7—5---7--5----|
E|----------------------------------------------7-|

G|---------------------------------------------------|
D|---------9-7-5—5555/--9-999-9--5----5h7p5----------|
A|--7—77----------------------------7—-------7--5----|
E|-------------------------------------------------7-|

G|---------------------------------------------------|
D|---------9-7-5—5555/--9-999-9--5-------------------|
A|--7—77----------------------------7—5---7—7h9p7----|
E|-------------------------------------------------7-|

G|---------------------------------------------------|
D|---------9-7-5—5555/--9-999-999--------------------|
A|--7—77-----------------------------—---------------|
E|---------------------------------------------------|

There it is then, enjoy


| /  slide up
| \  slide down
| h  hammer-on
| p  pull-off
| x  Mute note
===============================================================================
            
Submit corrections

comments powered by Disqus
↑ Back to top | Red Hot Chili Peppers Bass for Fortune Faded. Lyrics for acoustic guitar and electric guitar. Tablatures and chords are parodies/interpretations of the original songs. You may use it for private study, scholarship, research or language learning purposes only