>
 >
Fortune Faded 2

Fortune Faded 2 Bass Tabs

Red Hot Chili Peppers - Fortune Faded 2 chords, tabs, tablatures, lyrics

Guitar lessons | Add/correct | Request | Top 50 tabs Artists:  A B C D E F G H I J K L M N O P Q R S T U V W X Y Z 0-9

Fortune Faded 2 Bass Tabs – Red Hot Chili Peppers

CD, Sheet music, Poster

Do you like Fortune Faded 2? Share with your friends now
Bass TabsBass Tabs v2Bass Tabs v3Bass Tabs v4ChordsUkulele
-------------------------------------------------------------------------------
			     Fortune Faded  Red Hot Chili Peppers
-------------------------------------------------------------------------------


Tuning: standard

All the other tabs are crap on here in my view so  I done it out myself here. As far as
can tell it is right

Intro

G|--------------------------------------------------------------|
D|-----------44444444444--11111111111111111-161616161616161616-|
A|--------------------------------------------------------------|
E|--22222222----------------------------------------------------|


Verse x8
G|--------------------------------------------------------|
D|--------------------------------------------------------|
A|--22-xxxx-22-xxxx-22-xxxx-22-5x5x5x5x5------------------|
E|---------------------------------------5555--5555--3333-|


Chorus

G|------------------------------------------------|
D|---------9-7-55555/--9-999-9--5----------------|
A|--777----------------------------75---7--5----|
E|----------------------------------------------7-|

G|------------------------------------|
D|---------9-7-55555/--9-999-999-999-|
A|--777-----------------------------|
E|------------------------------------|


Verse x4 I think
G|--------------------------------------------------------|
D|--------------------------------------------------------|
A|--22-xxxx-22-xxxx-22-xxxx-22-5x5x5x5x5------------------|
E|---------------------------------------5555--5555--3333-|

Chorus

G|------------------------------------------------|
D|---------9-7-55555/--9-999-9--5----------------|
A|--777----------------------------75---7--5----|
E|----------------------------------------------7-|

G|------------------------------------|
D|---------9-7-55555/--9-999-999-999-|
A|--777-----------------------------|
E|------------------------------------|

Solo

G|--------------------------------------------------------|
D|--------------------------------------------------------|
A|--22-xxxx-22-xxxx-22-xxxx-22-5x5x5x5x5------------------|
E|---------------------------------------5555--5555--3333-|

G|--------------------------------------------------------|
D|--------------------------------------------------------|
A|--22-xxxx-25-xxxx-22-xxxx-20-5x5x5x5x5------------------|
E|---------------------------------------5555--5555--3333-|

Bridge

G|--------------------------------------------------------------|
D|-----------44444444444--11111111111111111-161616161616161616-|
A|--------------------------------------------------------------|
E|--22222222----------------------------------------------------|

Chorus

G|------------------------------------------------|
D|---------9-7-55555/--9-999-9--5----------------|
A|--777----------------------------75---7--5----|
E|----------------------------------------------7-|

G|---------------------------------------------------|
D|---------9-7-55555/--9-999-9--5----5h7p5----------|
A|--777----------------------------7-------7--5----|
E|-------------------------------------------------7-|

G|---------------------------------------------------|
D|---------9-7-55555/--9-999-9--5-------------------|
A|--777----------------------------75---77h9p7----|
E|-------------------------------------------------7-|

G|---------------------------------------------------|
D|---------9-7-55555/--9-999-999--------------------|
A|--777--------------------------------------------|
E|---------------------------------------------------|

There it is then, enjoy


| /  slide up
| \  slide down
| h  hammer-on
| p  pull-off
| x  Mute note
===============================================================================





Comments


Popular Red Hot Chili Peppers tabs & chords
Baby Appeal Bass Tabs
Let's Make Evil Bass Tabs
Pretty Little Ditty 2 Bass Tabs
Cant Stop 8 Tabs
Don't Forget Me 1 Tabs
Gong Li Tabs
Minor Thing 1 Tabs
River Of Avalon Tabs
Road Trippin' Tabs
Brendans Death Song Ukulele


Song lyrics



↑ Back to top | Tablatures and chords are parodies/interpretations of the original songs. You may use it for private study, scholarship, research or language learning purposes only
© 2014 AZChords.com Contact us | Privacy policy | DMCA | Add/correct tabs | Request tabs | Top 50 tabs